Gatsbys American Dream - Shhhhhh Im Listening To Reason Chords & Tabs

 

Shhhhhh Im Listening To Reason Chords & Tabs

Gatsbys American Dream Chords & Tabs

Version: 1 Type: Tab 0 ratings
1 star 2 stars 3 stars 4 stars 5 stars
comments

Shhhhhh Im Listening To Reason Tab

Gatsbys American Dream - Shhhhhh! I'm Listening To Reason
Tabbed by: nayr
Email: parisinflames@optonline.net

Tuning: Standard

Intro
e|-------------------------------------| 
B|-------------------------------------| 
G|-------------------------------------|
D|-2-3p2p0------------2-3p2p0--------|
A|-0--0----3p0-3-3/5--0--0----3p0--3--| 
E|------------4-------------------4----|


Part with the organ 
e|-------------------------------------------------| 
B|-------------------------------------------------| 
G|-------------------------------------------------|
D|-10-10p12h10------10-10-10---10p12h10------10-10-|
A|-0--0-------12p0--11-11-12---0-------12p0--11-12-| 
E|-------------------------------------------------|

e|-------------------------------------------| 
B|-------------------------------------------| 
G|-------------------------------------------|
D|-10p12h10------10-10-10---10p12h10------10-|
A|-0-------12p0--11-11-12---0-------12p0--11-| 
E|-------------------------------------------|

         Put her to bed with the big ones!
e|---------------------------------| 
B|---------------------------------| 
G|---------------------------------|
D|------2--6--------------2-0------|
A|--0-3-----7------2/5\2------3-2--| 
E|-----------8-0-4-----------------| x2

e|-----------------------------------------------| 
B|-----------------------------------------------| 
G|-----------------------------------------------|
D|------2--6--------------2-0--------------------|
A|--0-3-----7------2/5\2------3p0-2h3p2----------|
E|-----------8-0-4----------------------4p0-x12--|

e|--------| 
B|--1/13--| 
G|--2/14--|
D|--2/14--|
A|--0-----| 
E|--------|

Show me a swollen-headed hotshot son of a bitch
e|----5--------------------------------------------| 
B|---5---------------------------------------------| 
G|--5-------10-x-10/12/10---7-x-7/9/7---------2----| 
D|-7---------9-x------------6-x------------2--2----| 
A|--------------------------------------5--2--0----| 
E|--------------------------------------4--0-------| 
[ Tab from: http://www.guitartabs.cc/tabs/g/gatsbys_american_dream/shhhhhh_im_listening_to_reason_tab.html ]
Upstrokes - towards end
e|-8---| e|-7---| 
B|-10--| B|-9---| 
G|-9--| G|-7---|
D|-----| D|-----|
A|-----| A|-----|
E|-----| E|-----|

It's not the same it's not the same!
e|------------------------------------| 
B|-1-1-1-1--1-1-1-1--1-1-1-1----------| 
G|-22-2-2--2-2-2-2--2-2-2-2----------| 
D|-2-2-2-2--------------------3-3-3-3-| 
A|-0-0-0-0--------------------3-3-3-3-| 
E|----------3-3-3-3--2-2-2-2--1-1-1-1-|

Lying in the rubble
e|-0---| 
B|-0---| 
G|-1--| 
D|-2---| 
A|-2---| 
E|-0---|

Acoustic part!
e|-5---5-5-5--0---0-0-0------------------5-5-5-5-5--|
B|-5h6-6-6-6--1---1-1-1--11-11-11-11-11--6-6-6-6-6--|
G|-5---5-5-5-0h2-2-2-2--10-10-10-10-10--7-7-7-7-7--|
D|-5h7-7-7-7--2---2-2-2--12-12-12-12-12--7-7-7-7-7--|
A|-5---5-5-5--0---0-0-0--10-10-10-10-10--5-5-5-5-5--|
E|--------------------------------------------------|

e|----------------------------------------|
B|----------------------------------------|
G|----------------------------------------|
D|----------------------------------------|
A|--7-8-7--7-7-8-7--7-7-8-7--7-7-8-7---7--|
E|--6-6-6--6-6-6-6--6-6-6-6--6-6-6-6---6--|

e|-------------------|     e|-------------------|
B|-------------------|     B|-------------------|
G|-------------------|     G|-------------------|
D|-------------------|     D|-------------------|
A|-------------------|     A|-------------------|
E|--5-5-5-5-8-5-5-5--| x4  E|--4-4-4-4-7-4-4-4--| x4

e|-------------------|     e|-------------------|
B|-------------------|     B|-------------------|
G|-------------------|     G|-------------------|
D|-------------------|     D|-------------------|
A|-------------------|     A|-------------------|
E|--5-5-5-5-8-5-5-5--| x4  E|--4-4-4-4-7-4-4-4--| x3

e|-------------------------------------| 
B|-------------------------------------| 
G|--------------------7-7-7-7-7-7-7-7--|
D|--2-0-0-5-3-2-0-0-0-6-6-6-6-6-6-6-6--|
A|--0-2-3-0-0-0-5-3-5-7-7-7-7-7-7-7-7--|
E|--------------------0-0-0-0-0-0-0-0--|

e|------------------------------------------| 
B|------------------------------------------| 
G|---------------------------------------7--|
D|--2-0-0-5-3-2-0-0-0--2-0-0-5-3-2-0-0-0-6--|
A|--0-2-3-0-0-0-5-3-5--0-2-3-0-0-0-5-3-5-7--|
E|---------------------------------------0--|
Comments