Gatsbys American Dream - Giants Drink Chords & Tabs

 

Giants Drink Chords & Tabs

Gatsbys American Dream Chords & Tabs

Version: 1 Type: Tab 0 ratings
1 star 2 stars 3 stars 4 stars 5 stars
comments

Giants Drink Tab

Artist - Gatsbys American Dream
Song - The Giant's 
Album - Volcano
Tabber: Calum (afirock74@hotmail.com)

Intro/Verse
e|-----------------------|
B|-------------------0---|
G|-------------------1---|
D|----------2-2------0---|
A|--2-2-4-5-0-0-5----2---|
E|--0-0-2-3-----3-0--0---|
    x x x x x x x x

Chorus
e|-3-3-3-3-3--3-3-3-3--5-5-5-5---| 
B|-5-5-5-5-5--3-3-3-3--5-5-5-5---| 
G|-5-5-5-5-5--4-4-4-4--6-6-6-6---| 
D|-5-5-5-5-5--5-5-5-5--7-7-7-7---| 
A|-3-3-3-3-3--5-5-5-5--7-7-7-7---| 
E|------------3-3-3-3--5-5-5-5---|
[ Tab from: http://www.guitartabs.cc/tabs/g/gatsbys_american_dream/giants_drink_tab.html ]
Riff
e|--------------------------------------------------------------------------|
B|--------------------------------------------------------------------------|
G|-16-12-14-12-11-12-11-9-8~-----9-9--11-11-12-12-14-14-12/14/12--11/12/11--|
D|--------------------------------------------------------------------------|
A|--------------------------------------------------------------------------|
E|--------------------------------------------------------------------------|

Bridge:
e|-----------------------|
B|--1212------1010-------|
G|--1212-(x4)-1212-(x4)--|
D|--1010------1010-------|
A|-----------------------|
E|-----------------------|

e|--------------------------------------------------------|
B|--------------------------------------------------------|
G|--------------------------------------------------------|
D|--------------------------------------------------------|
A|--7-7-7-5-5-------------2-2-0-0-0-0-0-0-0-0-0-0-0-0-0-0-|
E|-----------3-3-3-3-3-3----------------------------------|

End
e|-0----0-0--|
B|--2---2-1--|
G|--0---2-2--|
D|-----------|
A|-----------|
E|-----------|
Comments