Gathering - Souvenirs Chords & Tabs

 

Souvenirs Chords & Tabs

Gathering Chords & Tabs

Version: 1 Type: Tab

Souvenirs Tab

The Gathering
Song: „Souvenirs”
From album: „Souvemirs”

Standard tuning

Solo:

Time: 3:47

--------------------------------------------|
-10-10-10-10-10-10-10-10-10-11-11-9~--9-9-9-|
--------------------------------------------|
--------------------------------------------|
--------------------------------------------|
--------------------------------------------|

--------------------------------------------|
-10-10-10-10-10-10-10-10-10-11-11-9~--9-9-9-|
--------------------------------------------|
--------------------------------------------|
--------------------------------------------|
--------------------------------------------|


--------------------------------------------|
-11-11-11-11-11-11-11-11-11-10-10-9~--9-9-9-|
--------------------------------------------|
--------------------------------------------|
--------------------------------------------|
--------------------------------------------|

--------------------------------------------|
-11-11-11-11-11-11-11-11-11-10-10-9~--9-9-9-|
--------------------------------------------|
--------------------------------------------|
--------------------------------------------|
--------------------------------------------|


-----------------------------------------|
-14-14-14-14-/-6-6-/-14-14-14-14-/-6-6-/-|
-----------------------------------------|
-----------------------------------------|
-----------------------------------------|
-----------------------------------------|

-----------------------------------------|
-11-11-11-11-/-3-3-/-11-11-11-11-/-3-3-/-|
-----------------------------------------|
-----------------------------------------|
-----------------------------------------|
-----------------------------------------|

-----------------------------------------|
-14-14-14-14-/-6-6-/-14-14-14-14-/-6-6-/-|
-----------------------------------------|
-----------------------------------------|
-----------------------------------------|
-----------------------------------------|

-----------------------------------|
-11-11-11-11-/-3-3-3-1-3-3-1-3-1-3-|
-----------------------------------|
-----------------------------------|
-----------------------------------|
-----------------------------------|

Time: 4:21

-/13-13-13-13-13-13-13-13-13-13-13-13-13-13-13-13-|
--------------------------------------------------|
--------------------------------------------------|
--------------------------------------------------|
--------------------------------------------------|
--------------------------------------------------|

-10-10-10-10-10-10-10-10-----------------|
-------------------------3-3-3-3-3-3-3-3-|
-----------------------------------------|
-----------------------------------------|
-----------------------------------------|
-----------------------------------------|
[ Tab from: http://www.guitartabs.cc/tabs/g/gathering/souvenirs_tab.html ]
--------------------------------------------|
-11-11-11-11-11-11-11-11-11-10-10-9~--9-9-9-|
--------------------------------------------|
--------------------------------------------|
--------------------------------------------|
--------------------------------------------|

--------------------------------------------|
-11-11-11-11-11-11-11-11-11-10-10-9~--9-9-9-|
--------------------------------------------|
--------------------------------------------|
--------------------------------------------|
--------------------------------------------|

----------13--12--12--------------13--12-|
-----------------------------------------|
-----------------------------------------|
-10/11-11---------------10/11-11---------|
-----------------------------------------|
-----------------------------------------|

------------13—-12--12------------------------|
-------------------------------------11--10/8-|
----------------------------------------------|
-10/11-11-----------------10/11-11------------|
----------------------------------------------|
----------------------------------------------|

----------------------------------------|
-10-10-10-10-10-10-10-10-10-10-10-10-10-|
----------------------------------------|
----------------------------------------|
----------------------------------------|
----------------------------------------|

---------------------------------------|
-8-8-8-8-3-3-3-3-3-3-3-3-1-3-3-1-3-3-1-|
---------------------------------------|
---------------------------------------|
---------------------------------------|
---------------------------------------|

Time: 4:54

-13-13-13-13-13-13-13-13-13-13-13-13-13-13-13-13-|
-------------------------------------------------|
-------------------------------------------------|
-------------------------------------------------|
-------------------------------------------------|
-------------------------------------------------|

-10-10-10-10-10-10-10-10-----------------|
-------------------------3-3-3-3-3-3-3-3-|
-----------------------------------------|
-----------------------------------------|
-----------------------------------------|
-----------------------------------------|

----------------------------------------|
-10-10-10-10-10-10-10-10-10-10-10-10-10-|
----------------------------------------|
----------------------------------------|
----------------------------------------|
----------------------------------------|

-----------------------------------------|
-8-8-8-8-3-3-3-3-3-3-3-3-3-3-3-3-3-3-3-3-|
-----------------------------------------|
-----------------------------------------|
-----------------------------------------|
-----------------------------------------|

---------------------13-13-13-13-13-13--------------------|
-1/3--1/3-1/3/1/3/1—--------------------------------------|
---------------------------------------3-3-3-3-3-3-3-3----|..
----------------------------------------------------------|
----------------------------------------------------------|
----------------------------------------------------------|