Gathering - Leaves Chords & Tabs

 

Leaves Chords & Tabs

Gathering Chords & Tabs

Version: 1 Type: Tab 0 ratings
1 star 2 stars 3 stars 4 stars 5 stars
comments

Leaves Tab

The Gathering - Leaves.
Tabbed by Mikko Lindstrom MikkoVijamiLindstrom@uboot.com.
  
THE GATHERING
'Leaves'

from the album 'Mandylion'


transcribed by
Mikko Vijami Lindstrom e-mail: MikkoVijamiLindstrom@uboot.com
My Homepage: www.666thoughts.xodox.com


Tune down to D (all strings one whole step down).


INTRO (without lead guitar)
 = acoustic electric guitar


|-------1---------|-------1---------|-1----------|-------1-|-------1----------|
|-------1---------|-------1---------|----1-------|-------1-|----1-----1-------|
|-3--3------------|-3--3------------|-------3----|-3--3----|-------------3----|
|-3---------------|-3---------------|----------3-|-3-------|-3--------------3-|
|-----------------|-----------------|------------|---------|------------------|
|-----------------|-----------------|------------|---------|------------------|

[ Tab from: http://www.guitartabs.cc/tabs/g/gathering/leaves_tab.html ]
|-------1----|-------1----------|-------1---------|-------1---------|
|-------1----|----1-----1-------|-------1---------|-------1---------|
|-3--3-------|-3-----------3----|-3--3------------|-3--3------------|
|-3----------|-3--------------3-|-3---------------|-3---------------|
|------------|------------------|-----------------|-----------------|
|------------|------------------|-----------------|-----------------|


|-1----------|-------1----|-------1----------|-------1----|-------1----------|
|----1-------|-------1----|----1-----1-------|-------1----|----1-----1-------|
|-------3----|-3--3-------|-3-----------3----|-3--3-------|-------------3----|
|----------3-|-3----------|-3--------------3-|-3----------|-3--------------3-|
|------------|------------|------------------|------------|------------------|
|------------|------------|------------------|------------|------------------|


|-------1----|-------1----------|-------1----|-------1----------|
|-------1----|----1--------1----|-------1----|----1-----1-------|
|-3--3-------|----------3-------|-3--3-------|-3-----------3----|
|-3----------|-3--------------3-|-3----------|-3--------------3-|
|------------|------------------|------------|------------------|
|------------|------------------|------------|------------------|


|-------1----|-------1----------|-------1----|
|-------1----|-------------1----|-------1----|
|-3--3-------|-3--3-----3-----3-|-3--3-------|
|-3----------|-3----------------|-3----------|
|------------|------------------|------------|
|------------|------------------|------------|


 
:: Ultimate Guitar Archive :: 
http://www.ultimate-guitar.com 

Comments