Gasolin - This Is My Life Chords & Tabs

 

This Is My Life Chords & Tabs

Gasolin Chords & Tabs

Version: 1 Type: Tab 0 ratings
1 star 2 stars 3 stars 4 stars 5 stars
comments

This Is My Life Tab

   
----------------------------------PLEASE NOTE---------------------------------#
#This file is the author's own work and represents their interpretation of the #
#song. You may only use this file for private study, scholarship, or research. #
#------------------------------------------------------------------------------#

From: assassin@post3.tele.dk (Kenneth O. Hoffmann)
Subject: TAB:Gasolin - This Is My Life
Date: 6 Dec 1999


                             Gasolin - This Is My Life

Tab Writen By Assassin.

This is a nice little beginner song by a danish group known
as Gasolin. It Sounds pretty nice on the Guitar and it's easy to learn
If any feedback or correction EMAIL: assassin@post3.tele.dk

    C                  C                     C                 G
e-|-------0--------0-|--------0------------|-------0-------0-|-------3---------|
B-|-----1--------1---|------1--------------|-----1---1---1---|-----0---0-------|
G-|---0--------0-----|----0--------0-----0-|---0-------0-----|---0-------0-----|
D-|---------0h2------|----------0h2---0h2--|-----------------|-----------------|
A-|-3----------------|--3------------------|-3---------------|-----------------|
E-|------------------|---------------------|-----------------|-3-----------3-4-|

    Am                F                 Am                G       F
e-|-------0-------0-|-------1-------1-|-------0-------0-|-------3-------1-|
B-|-----1---1---1---|-----1---1---1---|-----1---1---1---|-----0-------1---|
G-|---2-------2-----|---2-------2-----|---2-------2-----|---0-------2-----|
D-|-----------------|-3---------------|-----------------|---------3-------|
A-|-0---------------|-----------------|-0---------------|-----------------|
E-|-----------------|-----------------|-----------------|-3---------------|
[ Tab from: http://www.guitartabs.cc/tabs/g/gasolin/this_is_my_life_tab.html ]
    C                  C                     C                 G
e-|-------0--------0-|--------0------------|-------0-------0-|-------3---------|
B-|-----1--------1---|------1--------------|-----1---1---1---|-----0---0-------|
G-|---0--------0-----|----0--------0-----0-|---0-------0-----|---0-------0-----|
D-|---------0h2------|----------0h2---0h2--|-----------------|-----------------|
A-|-3----------------|--3------------------|-3---------------|-----------------|
E-|------------------|---------------------|-----------------|-3-----------3-4-|

    Am                F                 Am                G       F
e-|-------0-------0-|-------1-------1-|-------0-------0-|-------3-------1-|
B-|-----1---1---1---|-----1---1---1---|-----1---1---1---|-----0-------1---|
G-|---2-------2-----|---2-------2-----|---2-------2-----|---0-------2-----|
D-|-----------------|-3---------------|-----------------|---------3-------|
A-|-0---------------|-----------------|-0---------------|-----------------|
E-|-----------------|-----------------|-----------------|-3---------------|

    C                  C                 Am                E
e-|-------0--------0-|-------0-------0-|-------0-------0-|-------0-------0-|
B-|-----1--------1---|-----1-------1---|-----1---1---1---|-----0---0---0---|
G-|---0--------0-----|---0-------0-----|---2-------2-----|---1-------1-----|
D-|---------0h2------|-----------------|-----------------|-----------------|
A-|-3----------------|-3-------2-------|-0---------------|-----------------|
E-|------------------|-----------------|-----------------|-0---------------|

    F                 C                 Am                G       F
e-|-------1-------1-|-------0---------|-------0-------0-|-------3-------1-|
B-|-----1---1---1---|-----1---1-------|-----1---1---1---|-----0-------1---|
G-|---2-------2-----|---0-------0-----|---2-------2-----|---0-------2-----|
D-|-3---------------|-----------------|-----------------|---------3-------|
A-|-----------------|-3-----------3-2-|-0---------------|-----------------|
E-|-----------------|-----------------|-----------------|-3---------------|

[Repeat From Top]
Comments