Gary Moore - Wild Frontier Chords & Tabs

 

Wild Frontier Chords & Tabs

Gary Moore Chords & Tabs

Version: 1 Type: Tab 0 ratings
1 star 2 stars 3 stars 4 stars 5 stars
comments

Wild Frontier Tab

e-------12-14-15-14-12-----------------------------------------------------e
b-12-15----------------15-12----------12-15-15-----------------------------b
g----------------------------12-14-12--------------------------------------g
d--------------------------------------------------------------------------d
a--------------------------------------------------------------------------a
e--------------------------------------------------------------------------e

e-------12-14-15-14-12----------------------12-----------------------------e
b-12-15----------------15-12----------12-15--------------------------------b
g----------------------------12-14-12--------------------------------------g
d--------------------------------------------------------------------------d
a--------------------------------------------------------------------------a
e--------------------------------------------------------------------------e
[ Tab from: http://www.guitartabs.cc/tabs/g/gary_moore/wild_frontier_tab.html ]
Comments