Gary Moore - Still In Love With You Chords & Tabs

 

Still In Love With You Chords & Tabs

Gary Moore Chords & Tabs

Version: 1 Type: Tab 0 ratings
1 star 2 stars 3 stars 4 stars 5 stars
comments

Still In Love With You Tab

================================================================================
         Title : Still in Love with You (1985 Version)
        Artist : Gary Moore
         Written: Phil Lynott & Gary Moore
Transcribed by : Robert Grant **WeWantMoore** 01-01-2005
================================================================================


                                                                Intro |

--------------10------------------10-12-10~12~10----------------------|
-12(13)-----------12(13)-------13----------------13-12-10-------------|
----------------------------------------------------------12--12(13)--|
----------------------------------------------------------------------|
----------------------------------------------------------------------|
----------------------------------------------------------------------|


----------------------------------------------------------------------|
----------------------------------------------3-----------------------|
-----------2----------------------------------------------------------|
----------------------------------------------------------------------|
-0--------------------------------0-----------------------------------|
----------------------------------------------------------------------|



                                                                Verse |

-0--------------------------------1-----------------------------------|
-1--------------------------------1-----------------------------------|
-2--------------------------------2-----------------------------------|
----------------------------------0-----------------------------------|
-0--------------------------------------------------------------------|
----------------------------------------------------------------------|
           

-1--------------------------------------------------------------------|
-1--------------------------------5-----------------------------------|
-2--------------------------------4-----------------------------------|
----------------------------------5-----------------------------------|
----------------------------------3-----------------------------------|
-3--------------------------------------------------------------------|
    

-0--------------------------------1-----------------------------------|
-1--------------------------------1-----------------------------------|
-2--------------------------------2-----------------------------------|
----------------------------------0-----------------------------------|
-0--------------------------------------------------------------------|
----------------------------------------------------------------------|
         

-1--------------------------------------------------------------------|
-1--------------------------------5----------------------------3-----|
-2--------------------------------4----------------------------2-----|
----------------------------------5-----------------------------------|
----------------------------------3-----------------------------------|
-3--------------------------------------------------------------------|
  

-------------0--------------------------------1-----------------------|
---------1--------------------------------1---------------------------|
-----2--------------------------------2-------------------------------|
----------------------------------0-----------------------------------|
-0--------------------------------------------------------------------|
----------------------------------------------------------------------|
         

-------------1--------------------------------------------------------|
---------1------------------------------------5----------------3-----|
-----2------------------------------------4--------------------2-----|
--------------------------------------5-------------------------------|
----------------------------------3-----------------------------------|
-3--------------------------------------------------------------------|
      

-------------0--------------------------------1-----------------------|
---------1--------------------------------1---------------------------|
-----2--------------------------------2-------------------------------|
----------------------------------0-----------------------------------|
-0--------------------------------------------------------------------|
----------------------------------------------------------------------|
          

-------------1--------------------------------0-----------------------|
---------1--------------------------------5---1-----------------------|
-----2------------------------------------4---2-----------------------|
--------------------------------------5-------------------------------|
----------------------------------3-----------------------------------|
-3--------------------------------------------1-----------------------|
              



                                                               Chorus |

----------------------------------------------------------------------|
----------------------------------------------3-----------------------|
-------------5--------------------------------4-----------------------|
-------------7--------------------------------5-----------------------|
-0--------------------------------0-----------------------------------|
----------------------------------------------------------------------|
 

----------------------------------------------------------------------|
----------------------------------------------3-----------------------|
-------------5--------------------------------4-----------------------|
-------------7--------------------------------5-----------------------|
-0--------------------------------0-----------------------------------|
----------------------------------------------------------------------|



                                                                Verse |

-------------0--------------------------------1-----------------------|
---------1--------------------------------1---------------------------|
-----2--------------------------------2-------------------------------|
----------------------------------0-----------------------------------|
-0--------------------------------------------------------------------|
----------------------------------------------------------------------|
      

-------------1--------------------------------------------------------|
---------1------------------------------------5-----------------------|
-----2------------------------------------4---------------------------|
--------------------------------------5------------------------7-----|
----------------------------------3-----------------------------------|
-3--------------------------------------------------------------------|
       

-------------0--------------------------------1-----------------------|
---------1--------------------------------1---------------------------|
-----2--------------------------------2-------------------------------|
----------------------------------0-----------------------------------|
-0--------------------------------------------------------------------|
----------------------------------------------------------------------|


-------------1--------------------------------------------------------|
---------1------------------------------------5-----------------------|
-----2------------------------------------4---------------------------|
--------------------------------------5-------------------------------|
----------------------------------3-----------------------------------|
-3--------------------------------------------------------------------|
           

-------------0--------------------------------1-----------------------|
---------1--------------------------------1---------------------------|
-----2--------------------------------2-------------------------------|
----------------------------------0-----------------------------------|
-0--------------------------------------------------------------------|
----------------------------------------------------------------------|
      

-------------1-------------------------------------------------5-3---|
---------1------------------------------------5-----------------------|
-----2------------------------------------4---------------------------|
--------------------------------------5-------------------------------|
----------------------------------3-----------------------------------|
-3--------------------------------------------------------------------|
       

-------------0--------------------------------1-----------------------|
---------1--------------------------------1---------------------------|
-----2--------------------------------2-------------------------------|
----------------------------------0-----------------------------------|
-0--------------------------------------------------------------------|
----------------------------------------------------------------------|
        


-------------1--------------------------------0-----------------------|
---------1--------------------------------5---1-----------------------|
-----2------------------------------------4---2-----------------------|
--------------------------------------5-------------------------------|
----------------------------------3-----------------------------------|
-3--------------------------------------------1-----------------------|
                 



                                                               Chorus |

----------------------------------------------------------------------|
----------------------------------------------3-----------------------|
-------------5--------------------------------4-----------------------|
-------------7--------------------------------5-----------------------|
-0--------------------------------0-----------------------------------|
----------------------------------------------------------------------|
 

----------------------------------------------------------------------|
----------------------------------------------3-----------------------|
-------------5--------------------------------4-----------------------|
-------------7--------------------------------5---------------------2-|
-0--------------------------------0-----------------------------------|
----------------------------------------------------------------------|



                                                 The main guitar solo |

----------------------------------------------------------------------|
----------------------------------------------------------------------|
---5-------------5---7(9)-----7-5-7(9)---------7(10)--down------------|
-7---7-------------7--------------------------------------------------|
--------------------------------------------------------------------3-|
----------------------------------------------------------------------|

------------------------------7-8-10--7~8~7---------------------------|
-------10(12)-10-8---10-----8---------------8---8(10)-(10)-down-------|
-------------------------/9-------------------9-----------------------|
-5-5------------------------------------------------------------------|
----------------------------------------------------------------------|
----------------------------------------------------------------------|

----------15---13~15~13-12--------------------------------------------|
-------17/-------------------15-13-12-13---=>-Next--------------------|
----17/---------------------------------------------------------------|
-17/------------------------------------------------------------------|
----------------------------------------------------------------------|
----------------------------------------------------------------------|

---------------------------8------------------------------------------|
-15(17)---15(17)-----5--10---10--------12-13-15-15(17)---15(18)-down--|
------------------------------------14--------------------------------|
----------------------------------------------------------------------|
----------------------------------------------------------------------|
----------------------------------------------------------------------|

---------------------------17--------------------------------17-------|
-15------20(22)------17-20----20-20(22)------20(22)-20-17-20----20---|
----------------------------------------------------------------------|
----------------------------------------------------------------------|
----------------------------------------------------------------------|
----------------------------------------------------------------------|

-----15-17-17(19)-17-15-17----15--------------------------------------|
-/17-----------------------17----15-17-12-13-10-12--------------------|
----------------------------------------------------------------------|
---------------------------------------------------9(10)down----------|
-------------------------------------------------------------12-10-12-|
----------------------------------------------------------------------|
[ Tab from: http://www.guitartabs.cc/tabs/g/gary_moore/still_in_love_with_you_tab.html ]
-------------------------------------------------------------------12-|
----------------------------------------------------------------13----|
---------9~10~9----------9-10-12-12(14)--------------------9/14-------|
-9-10-12--------12-10-12----------------------------------------------|
----------------------------------------------------------------------|
----------------------------------------------------------------------|

-15-12----------------------------------------------------------------|
---------13--13(15)----------15-13-+12~15~12+-------+10~12~10+-------|
----------------------------------------------------------------------|
----------------------------------------------------------------------|
----------------------------------------------------------------------|
----------------------------------------------------------------------|

-----------------------------12-15(17)----------------------15(17)---|
-+8~10~8+--------8-------13-------------------------15---------------|
---------------------9/14---------------------------------------------|
----------------------------------------------------------------------|
----------------------------------------------------------------------|
----------------------------------------------------------------------|

-----------------------------------------22(24)-22(24)-22(24)---22-20-|
-15(17)-down-15-13----13(15)--down-13--------------------------------|
-------------------14-------------------------------------------------|
----------------------------------------------------------------------|
----------------------------------------------------------------------|
----------------------------------------------------------------------|

-19-------------------------------------------------------------------|
-----20------20(22)-----------20(22)---20---17--------17(18)-down-17--|
---------21-----------------------------------------------------------|
----------------------------------------------------------------------|
----------------------------------------------------------------------|
----------------------------------------------------------------------|

--------------------------------|-(verse)-----------------------------|
-15----------12(13)-12--12(13)-|------down-12--10--------------------|
--------------------------------|-------------------------------------|
--------------------------------|-------------------------------------|
--------------------------------|-------------------------------------|
--------------------------------|-------------------------------------|



                                                                Verse |

-------------0--------------------------------1-----------------------|
---------1--------------------------------1---------------------------|
-----2--------------------------------2-------------------------------|
----------------------------------0-----------------------------------|
-0--------------------------------------------------------------------|
----------------------------------------------------------------------|
        

-------------1--------------------------------------------------------|
---------1------------------------------------5-----------------------|
-----2------------------------------------4--------------------7-----|
--------------------------------------5------------------------7-----|
----------------------------------3-----------------------------------|
-3--------------------------------------------------------------------|
 

-------------0--------------------------------1-----------------------|
---------1--------------------------------1---------------------------|
-----2--------------------------------2-------------------------------|
----------------------------------0-----------------------------------|
-0--------------------------------------------------------------------|
----------------------------------------------------------------------|
      

-------------1--------------------------------------------------------|
---------1------------------------------------5-----------------------|
-----2------------------------------------4---------------------------|
--------------------------------------5-------------------------------|
----------------------------------3-----------------------------------|
-3--------------------------------------------------------------------|
         

-------------0--------------------------------1-----------------------|
---------1--------------------------------1---------------------------|
-----2--------------------------------2-------------------------------|
----------------------------------0-----------------------------------|
-0--------------------------------------------------------------------|
----------------------------------------------------------------------|
        

-------------1----------------------------------------3~5~3~5~3~5~3~5-|
---------1------------------------------------5-----------------------|
-----2------------------------------------4---------------------------|
--------------------------------------5-------------------------------|
----------------------------------3-----------------------------------|
-3--------------------------------------------------------------------|
   

-------------0--------------------------------1-----------------------|
---------1--------------------------------1---------------------------|
-----2--------------------------------2-------------------------------|
----------------------------------0-----------------------------------|
-0--------------------------------------------------------------------|
----------------------------------------------------------------------|
          

-------------1--------------------------------0-----------------------|
---------1--------------------------------5---1-----------------------|
-----2------------------------------------4---2-----------------------|
--------------------------------------5-------------------------------|
----------------------------------3-----------------------------------|
-3--------------------------------------------1-----------------------|
               



                                                               Chorus |

----------------------------------------------------------------------|
----------------------------------------------3-----------------------|
-------------5--------------------------------4-----------------------|
-------------7--------------------------------5-----------------------|
-0--------------------------------0-----------------------------------|
----------------------------------------------------------------------|
 

-----------------------------------------------------------7(8)-7-5---|
----------------------------------------------3----------5----------8-|
-------------5--------------------------------4-----------------------|
-------------7--------------------------------5-----------------------|
-0--------------------------------0-----------------------------------|
----------------------------------------------------------------------|



                                               The ending guitar solo |

----------------------------------------------------------------------|
-8(10)---------8---8--------------------------------------------------|
-----------------7----7(9)--------down-5----------------------4--5--7-|
-----------------------------------------7----------------------------|
----------------------------------------------------------------------|
----------------------------------------------------------------------|

----------------------------------------------------------------------|
----------------------------------------------------------------------|
-7(9)----------7(10)--7(10)--down-7-----------------------------------|
----------------------------------------------------------------------|
----------------------------------------------------------------3--3--|
----------------------------------------------------------------------|

----------------------------------------------------------------------|
----------------------------------------------------------------------|
------------------------------5--7--7(down to 4)------------------12--|
----5-5------------5--5/7------------------------5--5----------14-----|
-/7-------------7-----------------------------------------------------|
----------------------------------------------------------------------|

-------------------------------------------12-15----------------------|
----12-13-13(15)---13~15~13~12----12-13-15-------15(17)-15(17)-15(17)-|
-14----------------------------14-------------------------------------|
----------------------------------------------------------------------|
----------------------------------------------------------------------|
----------------------------------------------------------------------|

---------------------------------------5------------------------------|
-15(17)-15-13----15-15(17)--13---15------8--------------------5--8---|
--------------14------------------------------------------------------|
----------------------------------------------------------------------|
----------------------------------------------------------------------|
----------------------------------------------------------------------|


----------5--7------------------------------------------------5-------|
-8(10)------------------------------------------------------5---8(10)-|
----------------7(9)--down-(slight release)-5--7(up)---7(9)-----------|
----------------------------------------------------------------------|
----------------------------------------------------------------------|
----------------------------------------------------------------------|

----------------------------------------------------------------------|
----(10)-down-8-8-----------------------------------------------------|
-----------------------7(9)-7-5-'-7---5---7---5---4-5-7---------------|
------------------------------------7---7---7---7-------7-5-----------|
------------------------------------------------------------75-3-5-6-|
----------------------------------------------------------------------|

------------------------------------------------5---------5--8--7--5--|
----------------------------------------------5---5-8(10)-------------|
-------------------4-5-4-------------5---7(9)-------------------------|
---5-7---5(up)---7-------5---------7---7------------------------------|
-7-----7--------------------------------------------------------------|
----------------------------------------------------------------------|

------------------------------------------12--13----12----------------|
-8-8--------------------------13----15--------------------15----13----|
-----7(9)--7-5-7(9)---7/12------12----12--------12----12----12----12-|
----------------------------------------------------------------------|
----------------------------------------------------------------------|
----------------------------------------------------------------------|

-13(15)----13(15)---13(15)---15(12)-13-13-13~12-12-12~13-15-15-15(17)-|
----------------------------------------------------------------------|
----------------------------------------------------------------------|
----------------------------------------------------------------------|
----------------------------------------------------------------------|
----------------------------------------------------------------------|

-15(17)----15-15-------15-17-17(19)-17-15-17----15-------------------|
---------------------17-----------------------17----15-17-15-13~15~13-|
----------------------------------------------------------------------|
----------------------------------------------------------------------|
----------------------------------------------------------------------|
----------------------------------------------------------------------|

----------------15---------------------------12~15~12----12--=>next---|
-12----12-13-15----15(17)---17--1715-15(17)----------15--------------|
----14----------------------------------------------------------------|
----------------------------------------------------------------------|
----------------------------------------------------------------------|
----------------------------------------------------------------------|

-12~15~12--------12~15~12--------12~15~12--------12~15~12~13~12----12-|
----------15(17)----------15(17)----------15(17)----------------15----|
----------------------------------------------------------------------|
----------------------------------------------------------------------|
----------------------------------------------------------------------|
----------------------------------------------------------------------|

--------------------------------------------------------------Fadeout-|
-15~13-12~13~12--------------------12~13~12----12---------------------|
----------------1412--------12-14----------14----12(14)--------------|
--------------------------14------------------------------------------|
----------------------------------------------------------------------|
----------------------------------------------------------------------|
Comments