Gary Moore - Parisienne Walkways Chords & Tabs

 

Parisienne Walkways Chords & Tabs

Gary Moore Chords & Tabs

Version: 1 Type: Bass Tab 0 ratings
1 star 2 stars 3 stars 4 stars 5 stars
comments

Parisienne Walkways Bass Tab

--------3-----------------------|
----------------3---------------|
------------------------4-------|
--------------------------------|


--------------------------------|
--------------------------------|
1-------------------------3-4---|
--------------------------------|


--------------------------------|
1-------------------------------|
----------------------------1---|
--------------------------------|


--------------------------------|
--------------------------------|
----------------------------1---|
4-------------------------4-----|


--------------------------------|
--------------------------------|
4-------------------------------|
----------------------------1---|


--------------------------------|
--------------------------------|
----------------------------4---|
2-------------------------------|


--------------------------------|
--------------------------------|
3---------------------------3---|
--------------------------------|


--------------------------------|
--------------------------------|
--------------------------------|
1---------------------------1---|


--------3-----------------------|
----------------3---------------|
1-----------------------4-------|
--------------------------------|


--------------------------------|
--------------------------------|
1-------------------------3-4---|
--------------------------------|


--------------------------------|
1---------------------------1---|
--------------------------------|
--------------------------------|


--------------------------------|
--------------------------------|
----------------------------3---|
4-------------------------4-----|


--------------------------------|
--------------------------------|
4---------------------------4---|
--------------------------4-----|


--------------------------------|
--------------------------4-----|
----------------------------4---|
2-------------------------------|


--------------------------------|
--------------------------------|
3-------------------------------|
----------------1---------------|


--------------------------------|
----------------1-----------1---|
1-------------------------------|
--------------------------------|


--------------------------------|
--------------------------------|
1-------------------------------|
--------------------------------|


--------------------------------|
1---------------------------1---|
--------------------------1-----|
--------------------------------|


--------------------------------|
--------------------------------|
----------------------------1---|
4-------------------------4-----|


--------------------------------|
--------------------------------|
4-------------------------------|
----------4-----------------1---|


--------------------------------|
--------------------------4-----|
----------------------------4---|
2-------------------------------|


--------------------------------|
--------------------------1-2---|
3-------------------------------|
--------------------------------|


--------------------------------|
3-------------------------------|
----------------------------0---|
--------------------------1-----|


--------------------------------|
--------------------------------|
1---------------------------1---|
--------------------------------|


--------------------------------|
--------------------------------|
1-------------------------------|
--------------------------------|


--------------------------------|
1-------------------------3-1---|
--------------------------------|
--------------------------------|

[ Tab from: http://www.guitartabs.cc/tabs/g/gary_moore/parisienne_walkways_btab.html ]
--------------------------------|
--------------------------------|
----------------------------3---|
4-------------------------4-----|


--------------------------------|
--------------------------------|
4---------------------------4---|
--------------------------4-----|


--------------------------------|
--------------------------4-----|
----------------------------4---|
2-------------------------------|


--------------------------------|
--------------------------------|
3-------------------------------|
----------------------------3---|


--------------------------0-----|
--------------------------------|
3---------------------------3---|
--------------------------------|


--------------------------------|
3-----------3---4---------4-----|
----------------------------4---|
--------------------------------|


----------------------------------------|
3---------------------------------------|
----------------------------------------|
----------------------------------------|


--------------------------------|
1-------------------------3-1---|
--------------------------------|
--------------------------------|


--------------------------------|
--------------------------------|
----------------------------1---|
4-------------------------4-----|


--------------------------------|
--------------------------------|
4-------------------------------|
----------4-----------------1---|


--------------------------------|
--------------------------4-----|
----------------------------4---|
2-------------------------------|


--------------------------------|
----------------3---------------|
3-------------------------------|
--------------------------------|


--------------------------------|
----------------1-----------3---|
1-------------------------------|
--------------------------------|


--------------------------------|
--------------------------------|
1-------------------4-------3---|
----------------2-------1-------|


--------------------------------|
----------------1-----------3---|
1---------3-4-------------------|
--------------------------------|


--------------------------------|
--------------------------------|
1-------------------4-------3---|
----------------2-------1-------|


--------------------------------|
----------------1---------2-3---|
1---------3-4-------------------|
--------------------------------|


--------------------------------|
--------------------------------|
1---------4-------4-------3-----|
------------1---2---2---1---1---|


--------------------------------|
----------------1---------2-3---|
1---------3-4-------------------|
--------------------------------|


--------------------------------|
------------3---4---------------|
1---------4-------4-------3-----|
--------------------2---1---1---|


--------------------------------|
----------------1---------2-3---|
1---------3-4-------------------|
--------------------------------|


--------------------------------|
--------------------------------|
1---------4-------4-------------|
------------1---2---2---1---1---|


--------------------------------|
----------------1-----------3---|
1---------3-4-------------------|
--------------------------------|


--------------------------------|
--------------------------------|
1---------4-------4-------------|
------------1---2---2---1---1---|


--------------------------------|
----------------1-----------3---|
1---------3-4-------------------|
--------------------------------|
BY: ____________________________IBRAHIM MAKHZOUM____________________________
MAN, MY ASS GOT HURT SEACHING FOR THAT SONG
Comments