Gary Moore - Out In The Fields Chords & Tabs

 

Out In The Fields Chords & Tabs

Gary Moore Chords & Tabs

Version: 2 Type: Tab

Out In The Fields Tab

okay, four bars. each (*) on the higher e string is a beat(not to be played, just to 
timing) except the third bar, third beats on the b string. the four hammerons and pulloffs 
within one beat, done real quickly.

-*--------*-----------------------*-----*------|
-17b18----15h17p15h17p15h17p15h17--------------|
----------------------------------17----17b19--|
-----------------------------------------------|
-----------------------------------------------|
-----------------------------------------------|
[ Tab from: http://www.guitartabs.cc/tabs/g/gary_moore/out_in_the_fields_tab_ver_2.html ]
-*--------*-----------------------15----*------|
-17b18----15h17p15h17p15h17p15h17-*------------|
----------------------------------------17b19--|
-----------------------------------------------|
-----------------------------------------------|
-----------------------------------------------|

-----------------------------------------------|
-----------------------------------------------|
-----------------------------------------------|
-----------------------------------------------|
-----------------------------------------------|
-----------------------------------------------|

Also sometimes (at least once) in the thrid bar, Gary plays this instead. The last bend 
played then he plucks the note a few times more.

-*--------*-----------------------15----8b10---|
-17b18----15h17p15h17p15h17p15h17-*-----*------|
-----------------------------------------------|
-----------------------------------------------|
-----------------------------------------------|
-----------------------------------------------|