Gary Moore - Moving On Chords & Tabs

 

Moving On Chords & Tabs

Gary Moore Chords & Tabs

Version: 1 Type: Bass Tab 0 ratings
1 star 2 stars 3 stars 4 stars 5 stars
comments

Moving On Bass Tab

Artist: Gary Moore
Song:   Moving On

Intro
 |2x                                 |
G|-----------------------------------|
D|*---------------------------------*|
A|*---------------------------------*|
E|--0-2-3-5-5-5-5-5-5-5-5-5-5-5-5-5--|

Verse 1
 |3x                                 |
G|-----------------------------------|---------------------------------------|
D|*---------------------------------*|---------------------------------------|
A|*---------------------------------*|---------------------------2-2-3-3-4-4-|
E|--0-2-3-5-5-5-5-5-5-5-5-5-5-5-5-5--|-0-2-3-5-5-5-5-5-5-5-5-5-5-------------|

Chorus
G|---------------------------------------------------------------------------
D|---------------------------------------------------------------------------
A|-5-5-5-5-5-5-5-5-5-5-5-5-5-0-5-3---------------------------0-4-5-7-7-7-7-7-
E|---------------------------------5-5-5-5-5-5-5-5-5-5-5-5-5-----------------

--------------------------|
------------------7-5-----|
-7-7-7-----5-5--------7-5-|
-------3-3-----5----------|

Verse 2 [repeat Verse 1]

Chorus
[ Tab from: http://www.guitartabs.cc/tabs/g/gary_moore/moving_on_btab.html ]
Guitar Solo 1
G|-----------------------------------------------------------------------
D|-----------------------------------------------------------------------
A|-----------------------------------------------------------2-2-3-3-4-4-
E|-0-2-3-5-5-5-5-5-5-5-5-5-5-5-5-5-0-2-3-5-5-5-5-5-5-5-5-5-5-------------

---------------------------------------------------------------------------
---------------------------------------------------------------------------
-5-5-5-5-5-5-5-5-5-5-5-5-5-0-5-3---------------------------0-4-5-7-7-7-7-7-
---------------------------------5-5-5-5-5-5-5-5-5-5-5-5-5-----------------

--------------------------|
------------------7-5-----|
-7-7-7-----5-5--------7-5-|
-------3-3-----5----------|

Verse 3
 |3x                                 |
G|-----------------------------------|---------------------------------------|
D|*---------------------------------*|---------------------------------------|
A|*---------------------------------*|---------------------------2-2-3-3-4-4-|
E|--0-2-3-5-5-5-5-5-5-5-5-5-5-5-5-5--|-0-2-3-5-------------------------------|

Chorus

Guitar Solo 2 [repeat Guitar Solo 1]

Verse 4 [repeat Verse 1]

Chorus

Outro
G|-----------------------------------------|----------------------------------|
D|---------------------------------7-5-----|------------------7-5-------------|
A|-0-4-5-7-7-7-7-7-7-7-7-----5-5-------7-5-|-0-4-5-7------5-------7-5---------|
E|-----------------------3-3-----5---------|-----------3----5---------0-2-3-5-|

Comments