Gary Moore - Led Clones Chords & Tabs

 

Led Clones Chords & Tabs

Gary Moore Chords & Tabs

Version: 1 Type: Tab 0 ratings
1 star 2 stars 3 stars 4 stars 5 stars
comments

Led Clones Tab

Date: Sat, Dec.31,2005 
From: philriggins 
Subject: m/moore_gary/Led_Clones.tab
from the Album After the War.

E---------------------------------------------------------------|
B---------------------------------------------------------------|
G---------------------------------------------------------------|
D---------------------------------------------------------------|
A-------------------5---7---5-----------------------------------|
E--<12>---5-6-7---7------7-3-0----------------------------------|
  intro


E---------------------------------------------------------------|
B---------------------------------------------------------------|
G---------------------------------------------------------------|
D---------------------------------------------------------------|
A----------------5---7---5--------------------------------------|
E---------5-6-7---7------7-3------------------------------------|
                            hold  

                       

E---------------------------------------------------------------|
B---------------------------------------------------------------|
G---------------------------------------------------------------|
D--6-------6-------6------4-------4-------4---------------------|
A--7-------7-------7------3-------3-------3---------------------|
E----0-0-----0-0-----------0-0-----0-0--------------------------|



E---------------------------------------------------------------|
B---------------------------------------------------------------|
G-----------------------------------2-4-2-----------------------|
D--6-------6-------6----7-7-7-7-----0-0-0-----------------------|
A--4-------4-------4----3-3-3-3-----3-5-3-----------------------| 
E----0-0-----0-0------------------------------------------------|


[ Tab from: http://www.guitartabs.cc/tabs/g/gary_moore/led_clones_tab.html ]
E---------------------------------------------------------------|
B---------------------------------------------------------------|
G---------------------------------------------------------------|
D--6-------6-------6-----4-------4-------4----------------------|
A--7-------7-------7-----3-------3-------3----------------------|
E----0-0-----0-0----------0-0-----0-0---------------------------|
-You should be more careful what you borrow.





E---------------------------------------------------------------|
B---------------------------------------------------------------|
G----------------------------------2-4-2------------------------|
D--6-------6-------6----7-7-7-7----0-0-0----6------6-----6------|
A--4-------4-------4----3-3-3-3----3-5-3----4-4-4--4-4-4-4------| 
E----0-0-----0-0------------------------------------------------|



E---------------------------------------------------------------|
B---------------------------------------------------------------|
G--2-------2--------2----6-------6----6-------------------------|
D--2-------2--------2----4-4-4--4-4-4-4----7-7-7-7--------------|
A--0-0-0--0--0-0--0------------------------5-5-5-5--------------|
E------------------------------------------7-7-7-7--------------|



E---------------------------------------------------------------|
B---------------------------------------------------------------|
G---------------------------------------------------------------|
D---------------------------------------------------------------|
A-------------------5---7---5-----------------------------------|
E--<12>---5-6-7---7------7-3-0----------------------------------|
 repeat intro


E---------------------------------------------------------------|
B---------------------------------------------------------------|
G---------------------------------------------------------------|
D---------------------------------------------------------------|
A----------------5---7---5--------------------------------------|
E---------5-6-7---7------7-3------------------------------------|
                            hold  

Comments