Gary Moore - Empty Rooms Chords & Tabs

 

Empty Rooms Chords & Tabs

Gary Moore Chords & Tabs

Version: 1 Type: Tab 0 ratings
1 star 2 stars 3 stars 4 stars 5 stars
comments

Empty Rooms Tab

=-=-= Legend =-=-=
~  - Let ring
s  - Slide to required note
sl - Slide late to required note
h  - Hammer on
hl - Hammer on late
p  - Pull off
pl - Pull off late
<> - Harmonics/Vibrate
{} - Played Louder
() - Played Softer
[] - Continued Note from Last Bar
=  - Staccato
b* - Bend to required note
r* - Bend Return to required note
#*#- If you wish, play the required fill here.
  - Heavy vibrate.

This is the tabs for the little solo in the end of Empty Rooms.
I recommend the use of an electric guitar, since doing a bend
on an acoustic can be quite a job..


~~~~~~~~~~~~~~~~~~~~~~~~~~~~~~~~~~~~~~~~~~~~~~~~~~~~~~~~~~~~~~~~~~~~~~~~~~~~~~~~
~~~~~~~~~~~~~~~~~~~~~~~~~~~~~~~~~~~~~~~~~~~~~~~~~~~~~~~~~~~~~~~~~~~~~~~~~~~~~~~~
Solo, 1st part, Clean electric
Time: 02.31

e|---------------------------------------------|
B|---------------------------------------------|
G|--2h4-5~~~~~~-2h4--2~~~~~~-7s9--7~~~~~~-5~-4-|
D|---------------------------------------------|
A|---------------------------------------------|
E|---------------------------------------------|
[ Tab from: http://www.guitartabs.cc/tabs/g/gary_moore/empty_rooms_tab.html ]
e|--------------------------------------------------------------|
B|--------------------------------------------------------------|
G|-----------------------4--5--7~~~~~~-5p4----------------------|
D|-7-5~~~~~~-2s5-7~~~~~~-------------------7~~~~~~~~~~~~~~~~~~~-|
A|--------------------------------------------------------------|
E|--------------------------------------------------------------|


Solo, 2nd part, Heavy distortioned
Time: 02.49
   
e|--------------------------------------------------------------------------------------------|
B|--------------------------------------------------------------------------------------------|
G|-9~7-7-10sl15~~~~~~-13hl15-10~~~~~~-8pl6----------------------------------------------------|
D|-9~7-7-----------------------------------7~~~-5hl7----------------2-3-5-5s7~~~~~~-7h8-5~~~~~|
A|-7~5-5---------------------------------------------5--3-0~~-0p3-5---------------------------|
E|--------------------------------------------------------------------------------------------|

e|-----------------------------15-17-20-20b22~~~~-20b22-20b22-20~~~~~~~~-| and fade out...
B|-15h17-18~-17h18p17-15-17-18-------------------------------------------|
G|-----------------------------------------------------------------------|
D|-----------------------------------------------------------------------|
A|-----------------------------------------------------------------------|
E|-----------------------------------------------------------------------|

~~~~~~~~~~~~~~~~~~~~~~~~~~~~~~~~~~~~~~~~~~~~~~~~~~~~~~~~~~~~~~~~~~~~~~~~~~~~~~~~
~~~~~~~~~~~~~~~~~~~~~~~~~~~~~~~~~~~~~~~~~~~~~~~~~~~~~~~~~~~~~~~~~~~~~~~~~~~~~~~~

Thats all, email archangel87@gmail.com if you have any coments, tips, and the like.

Tabbed by Archangel.
Comments