Gary Moore - Always Gonna Love You Chords & Tabs

 

Always Gonna Love You Chords & Tabs

Gary Moore Chords & Tabs

Version: 1 Type: Tab 0 ratings
1 star 2 stars 3 stars 4 stars 5 stars
comments

Always Gonna Love You Tab

   
-------------------------------------------------------------------------------
		     Always gonna love you - Gary Moore
-------------------------------------------------------------------------------
Tabbed by: gwyder
Email: mirzamerdovic@gmail.com

Tuning: EADGBE

Intro:
e|-------------------------4-2-------------------------4---------------------|
B|-------5-4-----4-------5-5-4-----2---4-----4-------5---5-------------------|
G|-----6-----4---------6---6-4-------2---4---------6-------6-----------------|
D|---6---------4-----6-----------2---------4-----6---------------------------|
A|-4---------------4-----------0---------------4-----------------------------|
E|---------------------------------------------------------------------------|

Verse:
e|------------------------4-2--------------------------4-2-------------------|
B|-------5-4-----4------4-5-4------2---4-----4-------5-5-4-------------------|
G|-----6-----4--------6---6-4--------2---4---------6---6-4-------------------|
D|---6---------4-----6-----------2---------4-----6---------------------------|
A|-4---------------4-----------0---------------4-----------------------------|
E|---------------------------------------------------------------------------|

e|-----------------------------------------0---------------------------------|
B|-------5-4-----4---------------5-------2---2-------------------------------|
G|-----6-----4-----------1-----6-------2-------2-----------------------------|
D|---6---------4-------2-----6-------2-----------2-2-0-4-0-2-0---------------|
A|-4-----------------2-----4-------0---------------4-2-6-2-4-2---------------|
E|-----------------0---------------------------------------------------------|
[ Tab from: http://www.guitartabs.cc/tabs/g/gary_moore/always_gonna_love_you_tab.html ]
Chorus:
                     E   H, E 
I'm always gonna love you
               H     F#, H
it's probubly forever
                  E     H, E 
I'm always gonna love you
                    H          A          H       C#m
I don't think I can ever just forget the love we had

Solo:
e|-----------------10-----------8--------------------------------------------|
B|---------5------------------5---6------------------------------------------|
G|-------6---8-6------------6-------7-5--------------------------------------|
D|-7-7-7---------7----7-7-7--------------------------------------------------|
A|---------------------------------------------------------------------------|
E|---------------------------------------------------------------------------|

e|---------------------------------------------------------------------------|
B|---------------------------------------------------------------------------|
G|---4-5---4-5-4---------7---5---4-5-4---------------------------------------|
D|-7-----7-------7-5-5-4---7---7-------7-5-----------------------------------|
A|-----------------------------------------5---------------------------------|
E|---------------------------------------------------------------------------|

e|---------------------------------------------------------------------------|
B|---------5-------10-10-12-13-10-12-13-12-10--------------------------------|
G|-------6---8-6------------------------------13-13-12-8---------------------|
D|-7-7-7---------7-----------------------------------------------------------|
A|---------------------------------------------------------------------------|
E|---------------------------------------------------------------------------|

e|-----------------------8-------------6-------8-6---6-13--------------------|
B|-6-8-9-8-6---6-8-9-8-6---6-8-9-8-6-8---9-8-9-----9-------------------------|
G|-----------5---------------------------------------------------------------|
D|---------------------------------------------------------------------------|
A|---------------------------------------------------------------------------|
E|---------------------------------------------------------------------------|

| /  slide up
| \  slide down
| H  hammer-on
| p  pull-off
| ~  vibrato
| +  harmonic
| x  Mute note
===============================================================================
Comments