Gary Moore - All Your Love Chords & Tabs

 

All Your Love Chords & Tabs

Gary Moore Chords & Tabs

Version: 1 Type: Bass Tab 0 ratings
1 star 2 stars 3 stars 4 stars 5 stars
comments

All Your Love Bass Tab

   
----------------------------------------------------------------------------
			     ALL YOUR LOVE - Gary Moore
----------------------------------------------------------------------------

Tabbed By : WibbleWobble
e-mail: organisedchaos@talktalk.net

Tuning:  Standard EADG

A great fun song to play that really rocks too.  Get with the drummer as timing is 
with this one.

This is the main section "all your loving pretty baby....."

G|--------------------------------------------------------------------7-----|
D|------------3--------------3-----------------3--------------5\7-5\7-------|
A|----3\5-3\5--------3\5-3\5----------3\5-3\5----------2-3-5-----------5----|
E|--5-----------5--------------5-----------------5---7----------------------|
[ Tab from: http://www.guitartabs.cc/tabs/g/gary_moore/all_your_love_btab.html ]
G|---------------------------------------------------------------------------|
D|-7-5-----------------3-----------------------------------------------------|
A|-----5-3-----3\5-3\5-------3\5-------7-7-7-6-5-5-3-3-----3\5-3\5-3---------|
E|---------5-------------5-------5-7-------------------5-------------5-------|


Then the freeform bit (play with swing)
G|--------------------------------------------------------------------------|
D|-----------------------------7-5-----------5-7-----5-7--------------------|
A|-----2-3-------2-3------2-3------5-3---5-7-----5-7----------2-3------2-3--|
E|-3-5-------3-5------3-5---------------------------------3-5------3-5------|

G|--------------------------------------------------------------------------|
D|---9-7-6-------------7-5-4------------------------------------------------|
A|-7-------7-5------5---------5-3--------5-3--------------------------------|
E|-----------------------------------3-5-----5------------------------------|

& then back to the main riff

| /  slide up
| \  slide down
| h  hammer-on
| p  pull-off
| ~  vibrato
| +  harmonic
| x  Mute note
Comments