Gary Glitter - Rock N Roll Part 2 Chords & Tabs

 

Rock N Roll Part 2 Chords & Tabs

Gary Glitter Chords & Tabs

Version: 2 Type: Tab 0 ratings
1 star 2 stars 3 stars 4 stars 5 stars
comments

Rock N Roll Part 2 Tab

Rock N Roll Part 2  -  a.k.a "Hey Song"
Gary Gliter

For comments:
	Tom Clark  - shadow51taol.com

Tuning - EADGBe

e|-----------------------------|
B|-----------------------------|
G|-----------------------------|
D|-----------------------------|
A|-5----5/4----4/2-------2-4-5-|
E|-----------------------------|
[ Tab from: http://www.guitartabs.cc/tabs/g/gary_glitter/rock_n_roll_part_2_tab_ver_2.html ]
e|-------------------------------|
B|-------------------------------|
G|-------------------------------|
D|-------------------------------|
A|-(5)---5/4----4/2-------2-4-5--|
E|-------------------------------|

e|--------------------------|
B|--------------------------|
G|--------------------------|
D|--------------------------|
A|-(5)---5/4----4/7----7/6--|
E|--------------------------|

e|-------------------------------------|
B|-------------------------------------|
G|----------9--9--9-7------------------|
D|----------9--9--9-7-x7-x9---9-9-9---|
A|----------7--7--7-5-x7-x9---9-9-9---|
E|-7---7-7-------------x5x7---7-7-7---|



/  slide
x  scratch
Comments