Gary Glitter - Rock And Roll Part 2 Chords & Tabs

 

Rock And Roll Part 2 Chords & Tabs

Gary Glitter Chords & Tabs

Version: 1 Type: Tab 0 ratings
1 star 2 stars 3 stars 4 stars 5 stars
comments

Rock And Roll Part 2 Tab

Song: Rock and Roll part 2
Band: Garry Glitter
Standard Tunning

I was sitting down watching Vh1's best one hit wonders and i saw this song come up.  I 
up my guitar and picked around a bit and found it. It is played at almost every football 
and its really easy to play.

e|-----------------------------------------------|
B|-----------------------------------------------|
G|-----------------------------------------------|   2X
D|-----------------------------------------------|
A|-2--4--5---5-4---4-3---------------------------|
E|-----------------------------------------------|


e|-----------------------------------------------|
B|-----------------------------------------------|
G|-----------------------------------------------|
D|-----------------------------------------------|   1X
A|-2--4--5---5-4---4-7---7-6---------------------|
E|-----------------------------------------------|
[ Tab from: http://www.guitartabs.cc/tabs/g/gary_glitter/rock_and_roll_part_2_tab.html ]
                  HEY!                   HEY!
e|-----------------------------------------------|
B|-----------------------------------------------|
G|-----------------------------------------------|
D|-----------------------------------------------|   3X
A|-------------7-5--------------------7-5--------|
E|-5-5-5-7-7--------------5-5-5-7-7--------------|

                          HEY!!
e|------------x-x-x-x-x-x-x----------------------|
B|------------x-x-x-x-x-x-x----------------------|
G|------------x-x-x-x-x-x-x----------------------|
D|------------x-x-x-x-x-x-x----------------------|   4X
A|------------x-x-x-x-x-x-x----------------------|
E|-5-5-5-7-7--x-x-x-x-x-x-x----------------------|

    HEY!   HEY!
e|--x-x-x-x-x-x-x----------------------|
B|--x-x-x-x-x-x-X----------------------|
G|--x-x-x-x-x-x-x----------------------|
D|--x-x-x-x-x-x-x----------------------|   2X
A|--x-x-x-x-x-x-x----------------------|
E|--x-x-x-x-x-x-x----------------------|

    HEEEYYYYY!!
e|--x-x-x-x-x-x-x----------------------|
B|--x-x-x-x-x-x-X----------------------|
G|--x-x-x-x-x-x-x----------------------|
D|--x-x-x-x-x-x-x----------------------|   1X
A|--x-x-x-x-x-x-x----------------------|
E|--x-x-x-x-x-x-x----------------------|

And thats pretty much it. Have fun.
Comments