Garth Brooks - Long Neck Bottle Chords & Tabs

 

Long Neck Bottle Chords & Tabs

Garth Brooks Chords & Tabs

Version: 1 Type: Tab 0 ratings
1 star 2 stars 3 stars 4 stars 5 stars
comments

Long Neck Bottle Tab

i got this from a different syte... enjoy! garth is an amazing country western singer...
sings alot of other songs 2!!!

e----7-10-8--------------------------------|
b-10-------10-8----7---------------------7-|
g---------------10---9-7---7-----7-0-10----|
d------------------------9---7-9-----------|
a------------------------------------------|
e------------------------------------------|
[ Tab from: http://www.guitartabs.cc/tabs/g/garth_brooks/long_neck_bottle_tab.html ]
e---------------------------------------------|
b-10---7--------------------7---------7-------|
g---10---9-7---7----7-9-10----9-7-------9-7---|
d------------9--7-9----------------9----------|
a---------------------------------------------|
e---------------------------------------------|

e--------------------------------------------|
b-----------10-8-7------------8-8------------|
g---7-----7---------9-7----7-----------------|
d-9---7-9----------------9-------------------|
a--------------------------------------------|
e--------------------------------------------|
Comments