Garth Brooks - Friends In Low Places Chords & Tabs

 

Friends In Low Places Chords & Tabs

Garth Brooks Chords & Tabs

Version: 1 Type: Bass Tab 0 ratings
1 star 2 stars 3 stars 4 stars 5 stars
comments

Friends In Low Places Bass Tab

You can vary this anyway and still move along nicely with the song
(check the live version) anyway, enjoy the lyrics too....

INTRO/VERSE
G:|--------------9\-|-2---------------|-3---------------|-4---------------|
D:|-----------------|-----------------|-----------------|-----------------|
A:|-----------------|-----------------|-----------------|-----------------|
E:|-----------------|-----------------|-----------------|-----------------|


G:|-7---------------|-----------------|-9----9----------|-----------------|
D:|-----------------|----------9--9---|---------9---9---|---------9---9---|
A:|-----------------|-7---7-----------|-----------------|-7---7-----------|
E:|-----------------|-----------------|-----------------|-----------------|


CHORUS
G:|-9---7---6-------|-----------------|-----------------|-----------------|
D:|-------------9---|-7---7-----------|-----------------|-7---7-----------|
A:|-----------------|---------7---7---|-0---0---7---7---|---------7-------|
E:|-----------------|-----------------|-----------------|-------------6---|

[ Tab from: http://www.guitartabs.cc/tabs/g/garth_brooks/friends_in_low_places_btab.html ]
G:|-----------------|-----------------|-----------------|-9---7---6-------|
D:|-----------------|-9---9-----------|---------9---9---|-------------9---|
A:|---------9---9---|---------9---8---|-7---7-----------|-----------------|
E:|-7---7-----------|-----------------|-----------------|-----------------|



G:|-----------------|-----------------|-----------------|-----------------|
D:|-7---7-----------|-----------------|-7---7-----------|-----------------|
A:|---------7---7---|-0---0---7---7---|---------7---7---|-----------------|
E:|-----------------|-----------------|-----------------|-5!!-------------|
                                                         “ OASIS…”


G:|-----------------|-----------------|-----------------|-----------------|
D:|-----------------|---------9---9---|-7---7-----------|---------7---7---|
A:|---------6---7---|-7---7-----------|---------7---7---|-0---0-----------|
E:|-----------------|-----------------|-----------------|-----------------|


SOLO
G:|-----------------|-----------------|-----------------|-----------------|
D:|-7---------------|-----------------|-7---7-----------|-----------------|
A:|-----------------|-0---0---7---7---|---------7---7---|-0---0---7---7---|
E:|-----------------|-----------------|-----------------|-----------------|



G:|-----------------|-----------------|-----------------|-----------------|
D:|-----------------|-----------------|-7---7-7--7------|-7---------------|
A:|-0-0--1-1--2-----|-2---2-2/-7--7-7-|-----------------|-----------------|
E:|-----------------|-----------------|-----------------|-----------------|



Return to intro and repeat etc. etc
Comments