Gareth Gates - Unchained Melody Chords & Tabs

 

Unchained Melody Chords & Tabs

Gareth Gates Chords & Tabs

Version: 1 Type: Tab 0 ratings
1 star 2 stars 3 stars 4 stars 5 stars
comments

Unchained Melody Tab

   
Gareth Gates 
Unchained Melody

Capo 1st fret


  Lonely...     flow...       sea...        sea...
  G             A             G             F
e|-------3-----|-------0-----|-------3-----|-------1-----|
B|-----3---3---|-----2---2---|-----3---3---|-----1---1---|
G|---0-------0-|---2-------2-|---0-------0-|---2-------2-|
D|-------------|-------------|-------------|-------------|
A|-------------|-0-----------|-------------|-------------|
E|-3-----------|-------------|-0-----------|-1-----------|

  To...         arms...       sea.
  G             A             D             D
e|-------3-----|-------0-----|-------2-----|-------3-----|
B|-----3---3---|-----2---2---|-----3---3---|-----3---3---|
G|---0-------0-|---2-------2-|---2-------2-|---2-------2-|
D|-------------|-------------|-0-----------|-0-----------|
A|-------------|-0-----------|-------------|-------------|
E|-3-----------|-------------|-------------|-------------|

  Lonely...     sigh...       me...         me...
  G             A             G             F
e|-------3-----|-------0-----|-------3-----|-------1-----|
B|-----3---3---|-----2---2---|-----3---3---|-----1---1---|
G|---0-------0-|---2-------2-|---0-------0-|---2-------2-|
D|-------------|-------------|-------------|-------------|
A|-------------|-0-----------|-------------|-------------|
E|-3-----------|-------------|-0-----------|-1-----------|

  I'll...       home...       me.
  G             A             D             D
e|-------3-----|-------0-----|-------2-----|-------3-----|
B|-----3---3---|-----2---2---|-----3---3---|-----3---3---|
G|---0-------0-|---2-------2-|---2-------2-|---2-------2-|
D|-------------|-------------|-0-----------|-0-----------|
A|-------------|-0-----------|-------------|-------------|
E|-3-----------|-------------|-------------|-------------|



  Whoa...                     my love...
  D             D             Bm            Bm
e|-------2-----|-------2-----|-------2-----|-------2-----|
B|-----3---3---|-----3---3---|-----3---3---|-----3---3---|
G|---2-------2-|---2-------2-|---4-------4-|---4-------4-|
D|-0-----------|-0-----------|-------------|-------------|
A|-------------|-------------|-2-----------|-2-----------|
E|-------------|-------------|-------------|-------------|

  my darling...               hungered...
  G             G             A             A
e|-------3-----|-------3-----|-------0-----|-------0-----|
B|-----3---3---|-----3---3---|-----2---2---|-----2---2---|
G|---0-------0-|---0-------0-|---2-------2-|---2-------2-|
D|-------------|-------------|-------------|-------------|
A|-------------|-------------|-0-----------|-0-----------|
E|-3-----------|-3-----------|-------------|-------------|

  touch...                    alone...
  D             D             Bm            Bm
e|-------2-----|-------2-----|-------2-----|-------2-----|
B|-----3---3---|-----3---3---|-----3---3---|-----3---3---|
G|---2-------2-|---2-------2-|---4-------4-|---4-------4-|
D|-0-----------|-0-----------|-------------|-------------|
A|-------------|-------------|-2-----------|-2-----------|
E|-------------|-------------|-------------|-------------|

  times.
  A             A             A?            A?
e|-------0-----|-------0-----|-------0-----|-------0-----|
B|-----2---2---|-----2---2---|-----2---2---|-----2---2---|
G|---2-------2-|---2-------2-|---2-------2-|---2-------2-|
D|-------------|-------------|-2-----------|-2-----------|
A|-0-----------|-0-----------|-------------|-------------|
E|-------------|-------------|-------------|-------------|



  And time...                 by...
  D             D             Bm            Bm
e|-------2-----|-------2-----|-------2-----|-------2-----|
B|-----3---3---|-----3---3---|-----3---3---|-----3---3---|
G|---2-------2-|---2-------2-|---4-------4-|---4-------4-|
D|-0-----------|-0-----------|-------------|-------------|
A|-------------|-------------|-2-----------|-2-----------|
E|-------------|-------------|-------------|-------------|

  slowly...                   and time...
  G             G             A             A
e|-------3-----|-------3-----|-------0-----|-------0-----|
B|-----3---3---|-----3---3---|-----2---2---|-----2---2---|
G|---0-------0-|---0-------0-|---2-------2-|---2-------2-|
D|-------------|-------------|-------------|-------------|
A|-------------|-------------|-0-----------|-0-----------|
E|-3-----------|-3-----------|-------------|-------------|

  much...                     you...
  D             D             Bm            Bm
e|-------2-----|-------2-----|-------2-----|-------2-----|
B|-----3---3---|-----3---3---|-----3---3---|-----3---3---|
G|---2-------2-|---2-------2-|---4-------4-|---4-------4-|
D|-0-----------|-0-----------|-------------|-------------|
A|-------------|-------------|-2-----------|-2-----------|
E|-------------|-------------|-------------|-------------|

  mine.
  A             A             A?            A?
e|-------0-----|-------0-----|-------0-----|-------0-----|
B|-----2---2---|-----2---2---|-----2---2---|-----2---2---|
G|---2-------2-|---2-------2-|---2-------2-|---2-------2-|
D|-------------|-------------|-2-----------|-2-----------|
A|-0-----------|-0-----------|-------------|-------------|
E|-------------|-------------|-------------|-------------|



  I need...                   love...
  D             D             A             A
e|-------2-----|-------2-----|-------0-----|-------0-----|
B|-----3---3---|-----3---3---|-----2---2---|-----2---2---|
G|---2-------2-|---2-------2-|---2-------2-|---2-------2-|
D|-0-----------|-0-----------|-------------|-------------|
A|-------------|-------------|-0-----------|-0-----------|
E|-------------|-------------|-------------|-------------|

  I need...                   love...
  Bm            Bm            F#m           F#m
e|-------2-----|-------2-----|-------2-----|-------2-----|
B|-----3---3---|-----3---3---|-----2---2---|-----2---2---|
G|---4-------4-|---4-------4-|---2-------2-|---2-------2-|
D|-------------|-------------|-4-----------|-4-----------|
A|-1-----------|-1-----------|-------------|-------------|
E|-------------|-------------|-------------|-------------|

  darling...                   love...
  G             G             A             A
e|-------3-----|-------3-----|-------0-----|-------0-----|
B|-----3---3---|-----3---3---|-----2---2---|-----2---2---|
G|---0-------0-|---0-------0-|---2-------2-|---2-------2-|
D|-------------|-------------|-------------|-------------|
A|-------------|-------------|-0-----------|-0-----------|
E|-3-----------|-3-----------|-------------|-------------|

  me...
  D             D             D7            D7
e|-------2-----|-------2-----|-------1-----|-------1-----|
B|-----3---3---|-----3---3---|-----2---2---|-----2---2---|
G|---2-------2-|---2-------2-|---1-------1-|---1-------1-|
D|-0-----------|-0-----------|-0-----------|-0-----------|
A|-------------|-------------|-------------|-------------|
E|-------------|-------------|-------------|-------------|

  
[ Tab from: http://www.guitartabs.cc/tabs/g/gareth_gates/unchained_melody_tab.html ]
  Lonely...     flow...       sea...        sea...
  G             A             G             F
e|-------3-----|-------0-----|-------3-----|-------1-----|
B|-----3---3---|-----2---2---|-----3---3---|-----1---1---|
G|---0-------0-|---2-------2-|---0-------0-|---2-------2-|
D|-------------|-------------|-------------|-------------|
A|-------------|-0-----------|-------------|-------------|
E|-3-----------|-------------|-0-----------|-1-----------|

  To...         arms...       sea.
  G             A             D             D?
e|-------3-----|-------0-----|-------2-----|-------3-----|
B|-----3---3---|-----2---2---|-----3---3---|-----3---3---|
G|---0-------0-|---2-------2-|---2-------2-|---2-------2-|
D|-------------|-------------|-0-----------|-0-----------|
A|-------------|-0-----------|-------------|-------------|
E|-3-----------|-------------|-------------|-------------|

  Lonely...     sigh...       me...         me...
  G             A             G             F
e|-------3-----|-------0-----|-------3-----|-------1-----|
B|-----3---3---|-----2---2---|-----3---3---|-----1---1---|
G|---0-------0-|---2-------2-|---0-------0-|---2-------2-|
D|-------------|-------------|-------------|-------------|
A|-------------|-0-----------|-------------|-------------|
E|-3-----------|-------------|-0-----------|-1-----------|

  I'll...       home...       me.
  G             A             D             D?
e|-------3-----|-------0-----|-------2-----|-------3-----|
B|-----3---3---|-----2---2---|-----3---3---|-----3---3---|
G|---0-------0-|---2-------2-|---2-------2-|---2-------2-|
D|-------------|-------------|-0-----------|-0-----------|
A|-------------|-0-----------|-------------|-------------|
E|-3-----------|-------------|-------------|-------------|

  

  Whoa...                     my love...
  D             D             Bm            Bm
e|-------2-----|-------2-----|-------2-----|-------2-----|
B|-----3---3---|-----3---3---|-----3---3---|-----3---3---|
G|---2-------2-|---2-------2-|---4-------4-|---4-------4-|
D|-0-----------|-0-----------|-------------|-------------|
A|-------------|-------------|-2-----------|-2-----------|
E|-------------|-------------|-------------|-------------|

  my darling...               hungered...
  G             G             A             A
e|-------3-----|-------3-----|-------0-----|-------0-----|
B|-----3---3---|-----3---3---|-----2---2---|-----2---2---|
G|---0-------0-|---0-------0-|---2-------2-|---2-------2-|
D|-------------|-------------|-------------|-------------|
A|-------------|-------------|-0-----------|-0-----------|
E|-3-----------|-3-----------|-------------|-------------|

  hungered...                      touch...
  D             D             Bm            Bm
e|-------2-----|-------2-----|-------2-----|-------2-----|
B|-----3---3---|-----3---3---|-----3---3---|-----3---3---|
G|---2-------2-|---2-------2-|---4-------4-|---4-------4-|
D|-0-----------|-0-----------|-------------|-------------|
A|-------------|-------------|-2-----------|-2-----------|
E|-------------|-------------|-------------|-------------|

  alone...                    times.
  A             A             A?            A?
e|-------0-----|-------0-----|-0-----0-----|-0-----0-----|
B|-----2---2---|-----2---2---|-----2---2---|-----2---2---|
G|---2-------2-|---2-------2-|---2-------2-|---2-------2-|
D|-------------|-------------|-2-----2-----|-2-----2-----|
A|-0-----------|-0-----------|-------------|-------------|
E|-------------|-------------|-------------|-------------|



  And time...                 by...
  D             D             Bm            Bm
e|-------2-----|-------2-----|-------2-----|-------2-----|
B|-----3---3---|-----3---3---|-----3---3---|-----3---3---|
G|---2-------2-|---2-------2-|---4-------4-|---4-------4-|
D|-0-----------|-0-----------|-------------|-------------|
A|-------------|-------------|-2-----------|-2-----------|
E|-------------|-------------|-------------|-------------|

  slowly...                   and time...
  G             G             A             A
e|-------3-----|-------3-----|-------0-----|-------0-----|
B|-----3---3---|-----3---3---|-----2---2---|-----2---2---|
G|---0-------0-|---0-------0-|---2-------2-|---2-------2-|
D|-------------|-------------|-------------|-------------|
A|-------------|-------------|-0-----------|-0-----------|
E|-3-----------|-3-----------|-------------|-------------|

  much...                     you...
  D             D             Bm            Bm
e|-------2-----|-------2-----|-------2-----|-------2-----|
B|-----3---3---|-----3---3---|-----3---3---|-----3---3---|
G|---2-------2-|---2-------2-|---4-------4-|---4-------4-|
D|-0-----------|-0-----------|-------------|-------------|
A|-------------|-------------|-2-----------|-2-----------|
E|-------------|-------------|-------------|-------------|

  mine.
  A             A             A?            A?
e|-------0-----|-------0-----|-0-----0-----|-0-----0-----|
B|-----2---2---|-----2---2---|-----2---2---|-----2---2---|
G|---2-------2-|---2-------2-|---2-------2-|---2-------2-|
D|-------------|-------------|-2-----2-----|-2-----2-----|
A|-0-----------|-0-----------|-------------|-------------|
E|-------------|-------------|-------------|-------------|



  I need...                   love...
  D             D             A             A
e|-2-----2-----|-2-----2-----|-0-----0-----|-0-----0-----|
B|-----3---3---|-----3---3---|-----2---2---|-----2---2---|
G|---2-------2-|---2-------2-|---2-------2-|---2-------2-|
D|-0-----------|-0-----------|-------------|-------------|
A|-------------|-------------|-0-----------|-0-----------|
E|-------------|-------------|-------------|-------------|

  I need...                   love...
  Bm            Bm            F#m           F#m
e|-2-----2-----|-2-----2-----|-2-----2-----|-2-----2-----|
B|-----3---3---|-----3---3---|-----2---2---|-----2---2---|
G|---4-------4-|---4-------4-|---2-------2-|---2-------2-|
D|-------------|-------------|-4-----------|-4-----------|
A|-1-----------|-1-----------|-------------|-------------|
E|-------------|-------------|-------------|-------------|

  darling...                   love...
  G             G             A             A
e|-3-----3-----|-3-----3-----|-0-----0-----|-0-----0-----|
B|-----3---3---|-----3---3---|-----2---2---|-----2---2---|
G|---0-------0-|---0-------0-|---2-------2-|---2-------2-|
D|-------------|-------------|-------------|-------------|
A|-------------|-------------|-0-----------|-0-----------|
E|-3-----------|-3-----------|-------------|-------------|

  me...
  D             D             D?            D?
e|-2-----2-----|-2-----2-----|-3-----3-----|-3-----0h3-----0h2-2-|
B|-----3---3---|-----3---3---|-----3---3---|-----3-----3-------3-|
G|---2-------2-|---2-------2-|---2-------2-|---2---------2-----2-|
D|-0-----------|-0-----------|-0-----------|-0-----0-----------0-|
A|-------------|-------------|-------------|---------------------|
E|-------------|-------------|-------------|---------------------|

Enjoy.
Comments