Gardenian - Downfall Chords & Tabs

 

Downfall Chords & Tabs

Gardenian Chords & Tabs

Version: 1 Type: Tab 0 ratings
1 star 2 stars 3 stars 4 stars 5 stars
comments

Downfall Tab

Gardenian- Downfall (tab ver. 1.0)

from 'Two Feet Stand'

Transcribed by: Nick Beato (entity@cfl.rr.com)

during the chorus part, it's really hard to hear the melody, i tried though

tune down 2 steps (CFA#D#GC- low to high)

riff 1

gtr 1
-----------------------------------------------------------------
-----------------------------------------------------------------
-----------------------------------------------------------------
------------------------------------------------4"---------------
-2"------------------------------5"-------------5"---------------
-0"------------------------------3"------------------------------
gtr 2
-----------------------------------------------------------------
-----------------------------------------------------------------
-----------------------------------------------------------------
-9"------9"------9"------9"------9"------9"------7"------7"------
-----10"-----10"-----10"-----10"-----10"-----10"-----9"------9"--
-----------------------------------------------------------------

riff 2

gtr 1
-----------------------------------------------------------------
-----------------------------------------------------------------
-----------------------------------------------------------------
------------------------------------------------4"---------------
-2"------------------------------5"-------------5"---------------
-0"------------------------------3"------------------------------
gtr 2
-----------------------------------------------------------------
-----------------------------------------------------------------
-----------------------------------------------------------------
-9"------9"------9"------9"------9"------9"------7"------7"------
-----10"-----10"-----10"-----10"-----10"-----10"-----9"------9"--
-----------------------------------------------------------------
gtr 3
-----------------------------------------------------------------
-----------------------------------------------------------------
-7"------7"------7"------7"------7"------7"-----7"------7"-------
-----9"------9"------9"------9"------9"------9"------9"------9"--
-----------------------------------------------------------------
-----------------------------------------------------------------

riff 3

gtr 1
-----------------------------------------------------------------
-----------------------------------------------------------------
-----------------------------------------------------------------
-5-------4-----5-----------------5-------4-----2-----------------
-5-------5-----5---5-5-5-5-5-5-5-5-------5-----2---2-2-2-2-2-2-2-
-3-------2-----3---3-3-3-3-3-3-3-3-------2-----0---0-0-0-0-0-0-0-
                   * * * * * * *                   * * * * * * *

gtr 1 plays this 3rd+ time

-----------------------------------------------------------------
-----------------------------------------------------------------
-----------------------------------------------------------------
--------------------------------------------------------------12-
-2---2---2-2---2-2---2---2-2---2-2----4---5---5---5-5---5-----10-
-0---0---0-0---0-0---0---0-0---0-0 .. 2---3---3---3-3---3 ...----

not sure about this, it's really low in the mix

gtr 2
-----------------------------------------------------------------
-----------------------------------------------------------------
------4---------4~~~~~~~~~---------------------------------------
-5--5---7-5-4h5------------------5---5--7-5-4h5-7~~~~--5-5~~~~~--
-----------------------------------------------------------------
-----------------------------------------------------------------
gtr 3
-----------------------------------------------------------------
-----------------------------------------------------------------
------7---------7~~~~~~~~~----------------------5~~~~--4-4~~~~~--
-9--9--10-9-9h10-----------------9--9--10-9-9h10-----------------
-----------------------------------------------------------------
-----------------------------------------------------------------
[ Tab from: http://www.guitartabs.cc/tabs/g/gardenian/downfall_tab.html ]
3rd time
gtr 2
-----------------------------------------------------------------
-----------------------------------------------------------------
------4---------4~~~~~-7~~~~-------------------------------------
-5--5---7-5-4h5------------------5---5--7-5-4h5-7~~~~--5-5~~~~~--
-----------------------------------------------------------------
-----------------------------------------------------------------
gtr 3
-----------------------------------------------------------------
-----------------------------------------------------------------
------7---------7~~~~~-12~~~--------------------5~~~~--4-4~~~~~--
-9--9--10-9-9h10-----------------9--9--10-9-9h10-----------------
-----------------------------------------------------------------
-----------------------------------------------------------------

riff 4

gtr 1
--------------------------------------------
--------------------------------------------
--------------------------------------------
------------------------------7-------------
-2---2---2---2-2---2-2--------5-----5---4---
-0---0---0---0-0---0-0 ....---------3---2---

gtr2 plays something like this. 
it changes each time but here is the basic idea

--------------------------------------------
--------------------------------------------
--------------------------------------------
--------------------------------------------
---14p10---12p9---12p9---12p9---14p10-------
-0-------0------0------0------0-------------

--------------------------------------------
--------------------------------------------
--------------------------------------------
--------------------------------------------
---14p10---12p9---12p9---12p9---14p10-------
-0-------0------0------0------0-------------

--------------------------------------------
--------------------------------------------
--------------------------------------------
--------------------------------------------
---9p5---9p5---10p5---9p5---9p5-------------
-0-----0-----0------0-----0-----------------

--------------------------------------------
--------------------------------------------
--------------------------------------------
--------------------------------------------
---12p9---12p9---14p10---12p9---10p7--------
-0------0------0-------0------0-------------

--------------------------------------------
--------------------------------------------
--------------------------------------------
--------------------------------------------
---14p10---14p10---12p9---12p9---14p10------
-0-------0-------0------0------0------------

that fast lick sounds like an Em scale run..

-------------------
-------------------
---------------7-9-
--------7-9-10-----
-7-9-10------------
-------------------

riff 5

gtr1 & 2 (first times)
-----------------------------------------------------------------
-----------------------------------------------------------------
-----------------------------------------------------------------
-----------------------------------------------------------------
-----------------2---2---2---2-----------------------------------
-0h1-1---0h1-1---0---0---0---0---0h1-1---0h1-1---4---3---0---1---
                     *   *   *

last times
gtr1
-----------------------------------------------------------------
-----------------------------------------------------------------
-----------------------------------------------------------------
-----------------------------------------------------------------
-2h3-3---2h3-3---2---2---2---2---2h3-3---2h3-3---6---5---2---3---
-0h1-1---0h1-1---0---0---0---0---0h1-1---0h1-1---4---3---0---1---
                     *   *   *
gtr2
-----------------------------------------------------------------
-----------------------------------------------------------------
-----------------------------------------------------------------
-9/1010--9/1010--9---------------9/1010--9/1010--13--12--9---10--
-7/8-8---7/8-8---7---2---2---2---7/8-8---7/8-8---11--10--7---8---
---------------------0---0---0-----------------------------------
                     *   *   *

all of the transitions are E5 chords

-----
-----
-----
-----
-2---
-0---

outro

------------------
------------------
------------------
------------------
-2-2-2-2-------2--
-0-0-0-0-<2.6>-0--


please email any corrections or comments:
entity@cfl.rr.com

This file was downloaded from... 
Musical Manifestations 
(http://home.cfl.rr.com/xezlorir/mm)
if the link is not found, email: Xezlorir@hotmail.com
Comments