Garbage - Version 2 0 Chords & Tabs

 

Version 2 0 Chords & Tabs

Garbage Chords & Tabs

Version: 1 Type: Tab 0 ratings
1 star 2 stars 3 stars 4 stars 5 stars
comments

Version 2 0 Tab

   
***VERSION 2.0***

Tuning: Eb Ab Db Gb Bb Eb for entire album


***Temptation Waits

VERSE - Guitars tacet


CHORUS
|----------------|
|----------------|
|-7-----------6--|
|-7--5--8--3--6--|
|-5--5--8--3--4--|
|----3--6--1-----|


VERSE 2 - Same

Wah lead
|----------------------------|
|----------------------------|
|---10---8-10------10---8-10-|
|----------------------------|
|-8----8-------8-8----8------|
|----------------------------|


CHORUS 2 - Same


BRIDGE
|-------------15b17r15-13-|
|-15b17r15----------------|
|----------14-------------|
|-------------------------|
|-------------------------|
|-------------------------|


INTERLUDE
|-------------------------------|
|-------------------------------|
|----15----13-15----17b18r17-15-|
|-------------------------------|
|-13----13-------13-------------|
|-------------------------------|


|-------------------------------|
|-------------------------------|
|----15----13-15----------------|
|-------------------17b18r17-15-|
|-13----13-------13-------------|
|-------------------------------|


VERSE 3 - Everything tacet


CHORUS 3 
|-------------------------------|
|-------------------------------|
|-7-----------6-----7-----------|
|-7--5--8--3--6--8--7--5--8--10-|
|-5--5--8--3--4--8--5--5--8--10-|
|----3--6--1-----6-----3--6--8--|


OUTRO
Wah lead
|----------------------------|
|----------------------------|
|---10---8-10------10---8-10-|
|----------------------------|
|-8----8-------8-8----8------|
|----------------------------|



***I Think I'm Paranoid

INTRO/VERSE
|---------------------------------|
|----13----11------------------11-|
|-13----13-----11-----13----11----|
|------------------13----13-------|
|---------------------------------|
|---------------------------------|


PRECHORUS
|-------------------------|
|-------------------------|
|-------------------6---6-|
|-6---6-4---4-2---2-6---4-|
|-6---6-4---4-2---2-4---4-|
|-4---4-2---2-0---0-------|


Lead
|----------------------------|
|-------12-------12-------12-|
|----15-------15-------15----|
|-14-------14-------14-------|
|----------------------------|
|----------------------------|


CHORUS
|------------|
|------------|
|----------8-|
|-9--4--9--8-|
|-9--4--9--6-|
|-7--2--7----|


Lead (played under the Eb5 chord)
 1.
|-------------------------|
|-------------------------|
|-10-10-10-10-10-10-10-10-|
|-------------------------|
|-------------------------|
|-------------------------|

 2.
|-------------------------|
|-------------------------|
|-8-8-8-8-8-8-8-8-8-8-8-8-|
|-------------------------|
|-------------------------|
|-------------------------|


VERSE 2 - Same


PRECHORUS 2 - Same

Lead (in background)
|-----------------------|
|-9-11b12r11-11b12r11p9-|
|-----------------------|
|-----------------------|
|-----------------------|
|-----------------------|


CHORUS 2 - Same


INTERLUDE
|-------------|
|-------------|
|----------6--|
|-3--3--3--6--|
|-3--3--3--4--|
|-1--1--1-----|


Lead
|-------------------------|
|-------12-------12-------|
|----15-------15-------15-|
|-14-------14-------14----|
|-------------------------|
|-------------------------|


CHORUS 3 - Same


BRIDGE
|-------------------------|
|-------------------------|
|-------------------------|
|-6---6-4---4-2---2-2-2-2-|
|-6---6-4---4-2---2-2-2-2-|
|-4---4-2---2-0---0-0-0-0-|


VERSE 3/OUTRO - Same



***When I Grow Up

INTRO
|---------------------------------------|
|----------16------------------------16-|
|-13-15-16-----13-15-16-13--13-15-16----|
|---------------------------------------|     
|---------------------------------------|     
|---------------------------------------|


|-------------|
|-------------|
|-------------|
|-9--6--4--2--|
|-9--6--4--2--|
|-7--4--2--0--|


VERSE - Guitars tacet


CHORUS
|-------------|
|-------------|
|-------------|
|-2--6--2--4--|
|-2--6--2--4--|
|-0--4--0--2--|


VERSE 2 - Same


CHORUS 2 - Same


BRIDGE
|-------------|
|-------------|
|-------------|
|-9--6--4--2--|
|-9--6--4--2--|
|-7--4--2--0--|


VERSE 3 - Same

Rhythm fill (palm muted)
|-----|
|-----|
|-----|
|-9-9-|
|-9-9-|
|-7-7-|
        

CHORUS 3 - Guitars tacet

Lead fades in with this
|-------------------------|
|-------------------------|
|-10-10-10-10-10-10-10-10-|
|-------------------------|     
|-------------------------|     
|-------------------------|


BRIDGE 2
 1.5.
|-------------|
|-------------|
|-------------|
|-9--6--4--2--|
|-9--6--4--2--|
|-7--4--2--0--|

 2.3.4.6.
|-------------|
|-------------|
|-------------|
|-9--6--4--7--|
|-9--6--4--7--|
|-7--4--2--5--|


OUTRO - Everything tacet



***Medication

*CAPO ON FRET 2*

INTRO/VERSE
|---------5--0---|---------0------|
|-----3--------3-|-----3------3---|
|---0---0--------|-------4------4-|
|----------------|---4------------|
|----------------|-2--------------|
|-3--------------|----------------|


PRECHORUS
|-0--0--0--1--|
|-1--1--1--1--|
|-0--2--0--2--|
|-2--2--2--3--|
|-3--0--3--3--|
|----------1--|


CHORUS
|-0-----------0--------5--|
|-2--4--7--4--2--4--7--5--|
|-2--4--7--4--2--4--7--7--|
|-2--4--7--4--2--4--7--7--|
|-0--2--5--2--0--2--5--5--|
|-------------------------|


VERSE 2 - Same

Lead
|---------|
|-0-2-3-0-|
|---------|
|---------|
|---------|
|---------|


CHORUS 2 - Same


Build up to interlude
|-3-3-3-3-3-3-3-3-|
|-3-3-3-3-3-3-3-3-|
|-0-0-0-0-0-0-0-0-|
|-0-0-0-0-0-0-0-0-|
|-2-2-2-2-2-2-2-2-|
|-3-3-3-3-3-3-3-3-|


INTERLUDE
|-3--2--0--0--|
|-3--3--0--1--|
|-0--2--0--0--|
|-0--0--2--2--|
|-2-----2--3--|
|-3-----0-----|


Lead before chorus
|-------5-|
|-----7---|
|---0-----|
|---------|
|-3-------|
|---------|


CHORUS 3 - Same


OUTRO
|---------5--0---|---------0------|
|-----3--------3-|-----3------3---|
|---0---0--------|-------4------4-|
|----------------|---4------------|
|----------------|-2--------------|
|-3--------------|----------------|


End on
|-5-|
|-3-|
|-0-|
|-0-|
|---|
|-3-|



***Special

INTRO
|---------------------------------------------------|
|-----0-----0---------0-----0---------0-----0-----4-|
|---2-----2-----2---2-----2-----2---2-----2-----6-4-|
|-4-----4-----4---2-----2-----2---1-----1---------4-|
|---------------------------------------------4---2-|
|---------------------------------------------------|


VERSE
|-------------------------|
|-------------------------|
|----6-----6-----4-----4--|
|-2--6--2--6--4--4--4--4--|
|-2--4--2--4--4--2--4--2--|
|-0-----0-----2-----2-----|


CHORUS
|----------------------------|
|----------------------------|
|-2--4--2--4-----2--8--6--4--|
|-2--4--2--4--4--2--8--6--4--|
|-0--2--0--2--4--0--6--4--2--|
|-------------2--------------|


VERSE 2 - Same


BRIDGE
|---------------|
|------0------0-|
|--------11-----|
|----8------8---|
|-11------------|
|---------------|


VERSE 3
|-------------|
|-------------|
|----4-----4--|
|-4--4--4--4--|
|-4--2--4--2--|
|-2-----2-----|


CHORUS 2
|----------------------------------|
|----------------------------------|
|-2--4--2--4--2--6--------8--6--4--|
|-2--4--2--4--2--6--4--2--8--6--4--|
|-0--2--0--2--0--4--4--2--6--4--2--|
|-------------------2--0-----------|



OUTRO
Play these 2 and fade out...
|-------|
|-------|
|-2--6--|
|-2--6--|
|-0--4--|
|-------|



***Hammering In My Head

INTRO/VERSE
|------------------------------|
|-------11------13----13-14-11-|
|-12-12----12------12----------|
|------------------------------|
|------------------------------|
|------------------------------|


CHORUS - Guitars tacet


BRIDGE - Guitars tacet


VERSE 2 - Same


BRIDGE 2
|--------------------------------|
|-----------------------------6--|
|---7-6-7-----7-6-7-----7-6-7----|
|-0---------0---------0----------|
|--------------------------------|
|--------------------------------|


INTERLUDE
|-22b23r22b23r22--17b18--|
|------------------------|
|------------------------|
|------------------------|
|------------------------|
|------------------------|


lead
|------------------------------|
|-------11------13----13-14-11-|
|-12-12----12------12----------|
|------------------------------|
|------------------------------|
|------------------------------|


OUTRO - Guitars tacet



***Push It

INTRO/VERSE
|-----------------------------------------
|----13----13----13--------9----9----9----
|-10----10----10----10--10---10---10---10-
|-----------------------------------------
|-----------------------------------------
|-----------------------------------------
[ Tab from: http://www.guitartabs.cc/tabs/g/garbage/version_2_0_tab.html ]
 ----------------------------------------|
 ----11----11----11-------11---11---11---|
 -10----10----10----10--8----8----8----8-|
 ----------------------------------------|
 ----------------------------------------|
 ----------------------------------------|
 

PRECHORUS
|-------------|
|-------------|
|-3--5--6--8--|
|-3--5--6--8--|
|-1--3--4--6--|
|-------------|


CHORUS
|-------------|
|-------------|
|----6-----8--|
|-3--6--8--8--|
|-3--4--8--6--|
|-1-----6-----|

Lead
|--------------------------------|
|----12-13----9-11-9-11b12r11----|
|-10-------10-----------------10-|
|--------------------------------|
|--------------------------------|
|--------------------------------|


|--------------------------------|
|----12-13----9-11-9-11----------|
|-10-------10--------------------|
|--------------------------------|
|--------------------------------|
|--------------------------------|


VERSE 2

Lead
|-----------------------------------|
|-----------------------------------|
|----10-13-12--10-------10----8--12-|
|-10-----------------10----10-------|
|-----------------------------------|
|-----------------------------------|


PRECHORUS 2 - Same


CHORUS 2 - Same


INTERLUDE - With tremolo effects
|-13~~~~--13-13--13~~~~-11-11~~-|
|-------------------------------|
|-10~~~~---------10~~~~---------|
|-------------------------------|
|-------------------------------|
|-------------------------------|


PRECHORUS 3 - Everything tacet


CHORUS 3 - Same


BRIDGE

Lead
|-----------------------------------|
|-----------------------------------|
|----10-13-12--10-------10----8--12-|
|-10-----------------10----10-------|
|-----------------------------------|
|-----------------------------------|


CHORUS 4 - Same


End on
|-----|
|-----|
|-----|
|-3-3-|
|-3-3-|
|-1-1-|



***The Trick Is To Keep Breathing

The chords throughout are implied chords that are played by keyboards

INTRO
|-4--0--4--0--|
|-5--0--5--0--|
|-6--1--6--1--|
|-6--2--6--2--|
|-4--2--4--2--|
|----0-----0--|


VERSE
|-4--0--4--0--4--0--2--0--|
|-5--0--5--0--5--0--2--0--|
|-6--1--6--1--6--1--3--1--|
|-6--2--6--2--6--2--4--2--|
|-4--2--4--2--4--2--4--2--|
|----0-----0-----0--2--0--|


CHORUS
|-4--7--6--2--|
|-4--7--7--2--|
|-4--8--8--3--|
|-6--9--8--4--|
|-6--9--6--4--|
|-4--7-----2--|


VERSE 2 - Same


CHORUS 2 - Same


BRIDGE
|-0--2--|
|-0--2--|
|-1--3--|
|-2--4--|
|-2--4--|
|-0--2--|


VERSE 3 - Same


CHORUS 4/OUTRO - Same and fade out..



***Dumb

INTRO/VERSE
|-------------------------------|
|-14-14-13-13-11-11-------11-11-|
|-------------------12-12-------|
|-------------------------------|
|-------------------------------|
|-------------------------------|
  pm...........................


build up to prechorus
|-------------------------|
|-------------------------|
|-------------------------|
|-5--5--5--5--5--5--3--3--|
|-5--5--5--5--5--5--3--3--|
|-3--3--3--3--3--3--1--1--|


PRECHORUS
|----------------|
|----------------|
|-5--8--------5--|
|-5--8--5--3--5--|
|-3--6--5--3--3--|
|-------3--1-----|


CHORUS
|------------------------|
|------------------------|
|-7--5--7--------5-------|
|-7--5--7--7--8--5--(5)--|
|-5--3--5--7--8--3--(5)--|
|----------5--6-----(3)--|


VERSE 2
|-------------|
|-------------|
|----3--8--5--|
|-5--3--8--5--|
|-5--1--6--3--|
|-3-----------|


lead
|-----------/15-------/17-------/17-18-17-18-|
|-/15--/15-------/15-------/15---------------|
|--------------------------------------------|
|--------------------------------------------|
|--------------------------------------------|
|--------------------------------------------|


|-/15-------/15-------/17-------/17-18-17-18-|
|------/15-------/15-------/15---------------|
|--------------------------------------------|
|--------------------------------------------|
|--------------------------------------------|
|--------------------------------------------|


PRECHORUS 2 - Same


CHORUS 2 - Same


INTERLUDE 
|-------------|
|-------------|
|----3--8--5--|
|-5--3--8--5--|
|-5--1--6--3--|
|-3-----------|


1.2.3.5.6.7.9.10.
|-------|
|-------|
|-11-12-|
|-------|
|-------|
|-------|

4.8.
|-------------------|
|-------------------|
|-11-12-14-14b15r14-|
|-------------------|
|-------------------|
|-------------------|

11.
|------|
|------|
|-11\7-|
|------|
|------|
|------|


CHORUS 3
|-----------------------------------------------|
|-----------------------------------------------|
|-7--5--7--------5----------5-----------5-------|
|-7--5--7--7--8--5--5----8--5--5--7--8--5--5----|
|-5--3--5--7--8--3--5----8--3--5--7--8--3--5----|
|----------5--6-----3----6-----3--5--6-----3----|


OUTRO - With Verse 2 lead
|-------------------------|
|-------------------------|
|-------------------------|
|-5--5--5--5--5--5--5--5--|
|-5--5--5--5--5--5--5--5--|
|-3--3--3--3--3--3--3--3--|

End on
|---|
|---|
|---|
|-5-|
|-5-|
|-3-|



***Sleep Together

INTRO
|------------------------19-------|
|-19----19-18-----18-19-----19-18-|
|----16--------16-----------------|
|---------------------------------|
|---------------------------------|
|---------------------------------|


|-------------------------|
|-------------------------|
|-4-----4-----4-----4-----|
|-4--5--4--5--4--5--4--5--|
|-2--5--2--5--2--5--2--5--|
|----3-----3-----3-----3--|


VERSE
|-------------------------|
|-------------------------|
|-4-----4-----4-----4-----|
|-4--5--4--5--4--5--4--5--|
|-2--5--2--5--2--5--2--5--|
|----3-----3-----3-----3--|

|-------------------------|
|-------------------------|
|-4--------2--4-----2--2--|
|-4--5--2--2--4--5--2--2--|
|-2--5--2--0--2--5--0--0--|
|----3--0--------3--------|


CHORUS
(Implied chords)
|-0--3--2--0--|
|-0--3--3--1--|
|-0--0--2--0--|
|-2--0--0--2--|
|-2--2-----3--|
|-0--3--------|


Play intro again


VERSE 2 - Same


CHORUS 2 - Same


OUTRO - With intro lead
|-0-|
|-0-|
|-0-|
|-2-|
|-2-|
|-0-|



***Wicked Ways

INTRO/VERSE
|---------|
|-6/8\6~~-|
|-6/8\6~~-|
|---------|
|---------|
|---------|


Clean lead
|----------------------------|
|---2------2------2------2---|
|-5---5--5---5--5---5--5---5-|
|----------------------------|
|----------------------------|
|----------------------------|


PRECHORUS
|-------------|
|-------------|
|-------6--8--|
|-4--8--6--8--|
|-4--8--4--6--|
|-2--6--------|


CHORUS
|-------------|
|-------------|
|----6-----5--|
|-3--6--6--5--|
|-3--4--6--3--|
|-1-----4-----|


VERSE 2 - Same


PRECHORUS 2 - Same but twice


CHORUS 2 - Same


INTERLUDE
|-------------|
|-------------|
|-------5-----|
|-5--8--5--6--|
|-5--8--3--6--|
|-3--6-----4--|


Lead
|-----------------------------|
|-----------------------------|
|-11b12~~-11b12~~-11b12~~\8~~-|
|-----------------------------|
|-----------------------------|
|-----------------------------|


|---------------------------------------|
|---------------------------------------|
|-11b12~~-11b12~~-11b12~~\8~~-8-7-8-10--|
|---------------------------------------|
|---------------------------------------|
|---------------------------------------|


VERSE 3
|----------6--9\6--9--13--21\18-|
|-------6-----------------------|
|----6--------------------------|
|-8-----------------------------|
|-------------------------------|
|-------------------------------|


PRECHORUS 3 - Same but three times

Lead
|-------------------------|
|-16b18-------------------|
|-------------------------|
|-------------------------|
|--------16b18r16--11~~\--|
|-------------------------|


CHORUS 3
|-------------|
|-------------|
|----6--3-----|
|-3--6--3--4--|
|-3--4--1--4--|
|-1--------2--|


OUTRO
|-------------------------|
|-------------------------|
|-------------------------|
|-4--4--4--4--4--4--4--4--|
|-4--4--4--4--4--4--4--4--|
|-2--2--2--2--2--2--2--2--|

End on
|---|
|---|
|-3-|
|-3-|
|-1-|
|---|


Lead
|-6--9--13--21\18-|
|-----------------|
|-----------------|
|-----------------|
|-----------------|
|-----------------|



***You Look So Fine

INTRO/VERSE
Piano arranged for guitar
|-16----16----15----15----|
|----13----13----13----13-|
|-------------------------|
|-------------------------|
|-------------------------|
|-------------------------|


(Implied chords)
|-1--4--4--3--|
|-1--6--4--4--|
|-1--6--5--5--|
|-3--6--6--5--|
|-3--4--6--3--|
|-1-----4-----|



CHORUS
|-4--4--1--3--4--4--1--4--|
|-6--4--1--4--6--4--1--6--|
|-6--5--1--5--6--5--1--6--|
|-6--6--3--5--6--6--3--6--|
|-4--6--3--3--4--6--3--4--|
|----4--1--------4--1-----|


BRIDGE
|-1--1--4--4--4--4--3--3--|
|-1--1--6--6--4--4--4--4--|
|-1--1--6--6--5--5--5--5--|
|-3--3--6--6--6--6--5--5--|
|-3--3--4--4--6--6--3--3--|
|-1--1--------4--4--------|


CHORUS 2 - Same


VERSE 2 - Same


CHORUS 3 - Same


INTERLUDE
|-4--1--|
|-6--1--|
|-6--1--|
|-6--3--|
|-4--3--|
|----1--|



OUTRO
|-1-|
|-1-|
|-1-|
|-3-|
|-3-|
|-1-|
Comments