Garbage - Stupid Girl Chords & Tabs

 

Stupid Girl Chords & Tabs

Garbage Chords & Tabs

Version: 4 Type: Bass Tab 0 ratings
1 star 2 stars 3 stars 4 stars 5 stars
comments

Stupid Girl Bass Tab

Main Lick:
G|----------------|----------------|
D|----4---2-------|----------------|
A|----------4---0h|2---2---0h2-2-4-|
E|2-2-------------|----------------|

G|----------------|----------------|
D|----4---2-------|----------------|
A|----------4---0h|2---2---0h2-2---|
E|2-2-------------|----------------|





[ Tab from: http://www.guitartabs.cc/tabs/g/garbage/stupid_girl_btab_ver_4.html ]
"Dont believe..."
G  |----------------|----------------|
D  |----------------|----------------|
A h|6---------------|----------------|
E  |---------------h|4---------------| x3


G  |----------------|----------------|
D  |----------------|----------------|
A h|6--------------h|2---------------|
E  |----------------|----------------|

For those parts that arent the main lick, you have to hammer on the note and not pluck
it with your right.  you have to turn the volume off with your right hand when you hit
it and gradually crescendo until you hit the next note.
Comments