Garbage - Push It Chords & Tabs

 

Push It Chords & Tabs

Garbage Chords & Tabs

Version: 1 Type: Bass Tab 0 ratings
1 star 2 stars 3 stars 4 stars 5 stars
comments

Push It Bass Tab

my address is buddhabob83@yahoo.com feel free to mail me.
i havent found a lot of garbage tabs on the net or olga so i thought i
could shere them with you. here is one of them.

push it-GARBAGE

Verse/intro
3x
G--------------------|--------------------|----------------
D--------------------|-----------------0--|----------------
A----------0h1-0----|---2--0--2--2------|----------------
E----0--3--------- 3-|--------------------|----------------


Pre course
"this is the noise...."
G-------------------------------------------------------------------------------

D-------------------------------------------------------------------------------
[ Tab from: http://www.guitartabs.cc/tabs/g/garbage/push_it_btab.html ]
A---0-0-0-0-0-0-0-0-2-2-2-2-2-2-2-2-3-3-3-3-3-3-3-3-5-5-5-5-5-5-5-5---
E--------------------------------------------------------------------------------

Chorse
"Push it"

G-----------------|---------------|-----------------|-------------------------

D-----------------|-----0-2-0----|-------0-2-0----|---0----0---------------

A-------0-1-0----|---3--------3-|---0-3--------3-|------2----2-0----------

E---0-3--------3-|---------------|-----------------|-------------------------




olga i would apriciate if you could contact me at buddhabob83@yahoo.com.

i would like to send you more tabs

SONG-PUSH IT
ARTIST-GARBAGE
ALBUM-VERSION 2.0

i hope i helped some garbage fans.
please add this to your archive

Comments