Garbage - I Think Im Paranoid Chords & Tabs

 

I Think Im Paranoid Chords & Tabs

Garbage Chords & Tabs

Version: 2 Type: Bass Tab 0 ratings
1 star 2 stars 3 stars 4 stars 5 stars
comments

I Think Im Paranoid Bass Tab

   
song:   I Think I'm Paranoid
artist: Garbage
album:  V2.0
author: Jon Beattie (jonobt@hotmail.com)

Here is my bass tab for I think i'm paranoid by garbage.
I think it is actually played on a six string bass but I tabbed
it for my 5 string. sorry for those with only 4 strings,
just put it up if it is too low.


each '-' represents 1 semiquaver (16th note)

_________________________
To Put The Song Together

  (guitar intro 4 bars)
  Verse
  Pre Chorus
  Chorus
  Verse riff X 4
  Verse
  Pre Chorus
  Chorus
  Bridge1
  Chorus
  Bridge2
  Outro
___________________________

This Is What happens in each of the Parts of The song

Verse

G|----------------|      |----------------||
D|5-----5-3-----3-|      |5---------------||
A|----------------|  X6  |----------------||
E|----------------|      |----------------||
B|----------------|      |----------------||
   You can look but...



Pre chorus

G|----------------|----------------|
D|5-----5-3-----3-|6-----6-4-----4-|
A|----------------|----------------|   X3
E|----------------|----------------|
B|----------------|----------------|
  I think I'm Paranoid...

G|----------------|----------------|----------------||
D|5-----5-3-----3-|6---6---6---6-4-|--4---4-4-4-4-4-||
A|----------------|----------------|----------------||
E|----------------|----------------|----------------||
B|----------------|----------------|----------------||



Chorus
[ Tab from: http://www.guitartabs.cc/tabs/g/garbage/i_think_im_paranoid_btab_ver_2.html ]
G|----------------|----------------|----------------|----------------|
D|----------------|----------------|----------------|----------------|
A|1-----1-1---1---|--------------0-|1-----1-1---1/--|5-----5-5-7-5-3-|
E|----------------|1-----1-1-0-1---|----------------|----------------|
B|----------------|----------------|----------------|----------------|
  Beand me Break me...

G|----------------|----------------|----------------|----------------|
D|----------------|----------------|----------------|----------------|
A|1-----1-1---1---|--------------0-|1-----1-1---1/--|5---------------|
E|----------------|1-----1-1-0-1---|----------------|----------------|
B|----------------|----------------|----------------|------3-3-3-3-3-|

G|----------------||
D|----------------||
A|----------------||
E|----------------||
B|3-3-3-3-3-3-3-3-||



Bridge1

G|----------------|      |----------------|
D|----------------|      |----------------|
A|----------------|  X3  |----------------|
E|----------------|      |----------------|
B|5\--------------|      |1---------------|


G|----------------|      |----------------|----------------||
D|----------------|      |----------------|----------------||
A|----------------|  X3  |----------------|----------------||
E|----------------|      |----------------|----------------||
B|5\--------------|      |1---1---1---1-1-|1-1-1-1-1-------||



Bridge2

G|----------------|----------------||
D|----------------|----------------||
A|----------------|----------------||  X 8
E|3-----3-1-----1-|----------------||
B|----------------|4-4-4-4-4-3-4-1-||
  Steal Me Deal Me...



Outro

G|----------------|       |----------------||
D|5-----5-3-----3-|       |5---------------||
A|----------------|   x4  |----------------||
E|----------------|       |----------------||
B|----------------|       |----------------||

Comments, suggestions or corrections welcome.
Comments