Garbage - Cherry Lips Chords & Tabs

 

Cherry Lips Chords & Tabs

Garbage Chords & Tabs

Version: 2 Type: Tab 0 ratings
1 star 2 stars 3 stars 4 stars 5 stars
comments

Cherry Lips Tab

Cherry Lips - Garbage
Tabbed by: Mack Wright
Email: Mack_jam_12@yahoo.com

Tuning: EADGBe

intro/verse: synth for guitar
e|-----------------------------------------------------------------|
B|-----------------------------------------------------------------|
G|-----------------------------------------------------------------| repeat as
D|-----4-3-2-2---------2-1-0-0-----------2-4-2---------4-3-2-2-----| needed
A|-4-4---------4-1-2-2---------2---0-0-4-------4-0-2-2---------4-0-|
E|-------------------------------4---------------------------------|
[ Tab from: http://www.guitartabs.cc/tabs/g/garbage/cherry_lips_tab_ver_2.html ]
chorus:
e|------------------------------------------------------------------|
B|------------------------------------------------------------------|
G|-6-6-6-6---------4-4-4-4---------------------------------4-4-4-4--| x2
D|-6-6-6-6-4-4-4-4-4-4-4-4-2-2-2-2-7-7-7-7-7-7-7-7-4-4-4-4-4-4-4-4--|
A|-4-4-4-4-4-4-4-4-2-2-2-2-2-2-2-2-7-7-7-7-7-7-7-7-4-4-4-4-2-2-2-2--|
E|---------2-2-2-2---------0-0-0-0-5-5-5-5-5-5-5-5-2-2-2-2----------|

bridge:
e|------------------------------------------------------------------|
B|------------------------------------------------------------------|
G|-6-6-6-6-6-6-6-6-----------------4-4-4-4-2-2-2-2---------6-6-6-6--|  x2
D|-6-6-6-6-6-6-6-6-4-4-4-4-4-4-4-4-4-4-4-4-2-2-2-2-2-2-2-2-6-6-6-6--|
A|-4-4-4-4-4-4-4-4-4-4-4-4-4-4-4-4-2-2-2-2-0-0-0-0-2-2-2-2-4-4-4-4--|
E|-----------------2-2-2-2-2-2-2-2-----------------0-0-0-0----------|


Order:
intro 1x
verse 3x
chorus 2x
verse 4x
chorus 2x
bridge 2x
verse 2x
chorus 6x
verse
Comments