Garbage - Cherry Lips Chords & Tabs

 

Cherry Lips Chords & Tabs

Garbage Chords & Tabs

Version: 1 Type: Bass Tab 0 ratings
1 star 2 stars 3 stars 4 stars 5 stars
comments

Cherry Lips Bass Tab

SONG: Cherry Lips
ARTIST: Garbage
TAB: Mikey (michaelsabell@hotmail.com)
TUNING: Standard (EADG)


VERSE
||-----------------|-----------------|-----------------|-----------------||
||-----------------|-----------------|-----------------|-----------------||
||-4-4-4-0-------0-|-2-2-2-0---------|-0-0-0-0-0-0-0-0-|---------2-2-2-2-||
||---------2-2-2---|---------0-0-0-0-|-----------------|-2-2-2-2---------||


CHORUS
||-----------------|-----------------|-----------------|-------4-6-4-----||
||-----------------|-----------------|---------5-0-5-7-|-------------6---||
||-4-4-4-0-------0-|-2-2-2-0---------|-0-0-0-0---------|---------------7-||
||---------2-2-2---|---------0-0-0-0-|-----------------|-2-2-2-----------||

[ Tab from: http://www.guitartabs.cc/tabs/g/garbage/cherry_lips_btab.html ]
BRIDGE
||-----------------|-----------------|-----------------|-----------------||
||-----------------|-----------------|-----------------|-----------------||
||-4-4-4-4-4-4-4-4-|-----------------|-2-2-2-2-0-0-0-0-|---------4-4-4-4-||
||-----------------|-2-2-2-2-2-2-2-2-|-----------------|-0-0-0-0---------||


OUTRO
||-----------------|-----------------|-----------------|-------4-6-4-----||
||-----------------|-----------------|---------5-0-5-7-|-------------6---||
||-4-4-4-0-------0-|-2-2-2-0---------|-0-0-0-0---------|---------------7-||
||---------2-2-2---|---------0-0-0-0-|-----------------|-2-2-2-----------||



And that's it! This tab is CORRECT, especially the chorus. Of course you need
to play each part several times etc.
Comments