Garbage - Bleed Like Me Chords & Tabs

 

Bleed Like Me Chords & Tabs

Garbage Chords & Tabs

Version: 2 Type: Tab

Bleed Like Me Tab

-------------------------------------------------------------------------------
			     Bleed Like Me - Garbage
-------------------------------------------------------------------------------
Tabbed by: Luy
Email: luyendyk97@yahoo.com

Tuning: Standard

Intro/Verse

e|----------------------------------------|
B|----------------------------------------|
G|----------------------------------------|
D|----------------------------------------|
A|3------3------3--4------4------4--------|
E|--4--4---4-4---4---4--4---4--4---4------|
[ Tab from: http://www.guitartabs.cc/tabs/g/garbage/bleed_like_me_tab_ver_2.html ]
e|----------------------------------------|
B|----------------------------------------|
G|----------------------------------------|
D|----------------------------------------|
A|3------3------3--4------4------4--------|
E|--4--4---4-4---4---4--4---4--4---4------|
  
Chorus

e|----------------------------------------|
B|----------------------------------------|
G|----------------------------------------|
D|----------------------------------------|
A|2------2------2--4------4------4--------|
E|--4--4---4-4---4---4--4---4--4---4------|
  You _______________ Should See ______

e|----------------------------------------|
B|----------------------------------------|
G|----------------------------------------|
D|----------------------------------------|
A|2------2------2--4------4------4--------|
E|--4--4---4-4---4---4--4---4--4---4------|
  My Scars _______