Garbage - Bad Boyfriend Chords & Tabs

 

Bad Boyfriend Chords & Tabs

Garbage Chords & Tabs

Version: 1 Type: Tab 0 ratings
1 star 2 stars 3 stars 4 stars 5 stars
comments

Bad Boyfriend Tab

as far as i know, this is the whole song, i may have left out a few "twiddly bits", so 
if i have!!!!     this is onli my first tab, be gentle and look at it as an aid, listen 
it, the song rocks!!!
[ Tab from: http://www.guitartabs.cc/tabs/g/garbage/bad_boyfriend_tab.html ]
e----------------------------------|
B----------------------------------|
G----------------------------------|
D---3--3--3----6--6--6-------------|
A---3--3--3----6--6--6-------------|
E---1--1--1----4--4--4-------------|     verse    F  G#


e----------------------------------|
B----------------------------------|
G---3--3--3----6--6--6-------------|
D---3--3--3----6--6--6-------------|
A---1--1--1----4--4--4-------------|
E----------------------------------|     chorus   A#  C#

basically thats it.
Comments