Gang James - Funk Chords & Tabs

 

Funk Chords & Tabs

Gang James Chords & Tabs

Version: 1 Type: Tab 0 ratings
1 star 2 stars 3 stars 4 stars 5 stars
comments

Funk Tab

I  have loked all around for the correct solo. Finnally i have learned
it from my guitar teacher. Please enjoy.


e----5---------------------------------------e
b------8------*6*6*6*6see below--------------b
g-6^^----6^^-5--*6*6*6*6see below--75--------g
d--------------------------------------75----d
a-----------------------------------------7--a
e--------------------------------------------e
[ Tab from: http://www.guitartabs.cc/tabs/g/gang_james/funk_tab.html ]
for the *6*6*6*6 u bend it 1 step up and pluk with finger on it then 
press down. Spread out the four notes between 1 step up tp just a 6 on
the g string. It is hard at first but it isnt that hard onece u get 
it.

Also the main part of the song is wrong on all the others. See bwlow.


E---------------------E
B-5------7-5------7H8-B    Then repeat as many times as in the song.
G-5H6----7-5H6----7---G
D-5------7-5------7H9-D
A---------------------A
E---------------------E




ENJOY
Comments