Gang Green - Skate To Hell Chords & Tabs

 

Skate To Hell Chords & Tabs

Gang Green Chords & Tabs

Version: 1 Type: Tab 0 ratings
1 star 2 stars 3 stars 4 stars 5 stars
comments

Skate To Hell Tab

   
Band:  Gang Green
Song:  Skate to Hell
Tabbed by:  Rick  (rickrack97@hotmail.com)
AIM:  rickrack97


Chords:

D5  (x577xx)       G5  (355xxx)
C5  (x355xx)
F2  (x8-10-10xx)
G2  (x10-12-12xx)
E5  (022xxx)


Intro/Verse:

E|-------------------------------------------|
B|-------------------------------------------|
G|-7-7-7-7--10--12-12---5-5-5-5-5-5--10-10---|
D|-7-7-7-7--10--12-10---5-5-5-5-5-5--10-10---|
A|-5-5-5-5---8--10--8---3-3-3-3-3-3---8--8---|
E|-------------------------------------------|

Intro 2:
[ Tab from: http://www.guitartabs.cc/tabs/g/gang_green/skate_to_hell_tab.html ]
E|------------------------------|
B|------------------------------|
G|----7~~~------10h12-10--12b---|
D|------------------------------|
A|------------------------------|
E|------------------------------|


Chorus:

E|------------------------------------------------------------------|
B|------------------------------------------------------------------|
G|-7-7-7-7-7-7-7-7-5-5-5-5-5-5-5-5----------------------------------|
D|-7-7-7-7-7-7-7-7-5-5-5-5-5-5-5-5-5-2-2-2-2-2-2-2-2----------------|
A|-5-5-5-5-5-5-5-5-3-3-3-3-3-3-3-3-5-2-2-2-2-2-2-2-2----------------|
E|---------------------------------3-0-0-0-0-0-0-0-0----------------|


All that's left is the solo, which i don't know.  Sorry.  Gang Green kicks ass.  Later.
Comments