Gang Green - Ill Worry About It Monday Chords & Tabs

 

Ill Worry About It Monday Chords & Tabs

Gang Green Chords & Tabs

Version: 1 Type: Tab 0 ratings
1 star 2 stars 3 stars 4 stars 5 stars
comments

Ill Worry About It Monday Tab

   
Aritst:  Gang Green
Song:  I'll Worry About It Monday
Album:  Another Case of Brewtality
Tabbed by:  Rick  (rickrack97@hotmail.com)
AIM:  rickrack97

Chords:

A5  (577xxx)  F5  (133xxx)
B5  (799xxx)  G5  (355xxx)
C5  (355xxx)  Bb5 (688xxx)
D5  (x577xx)  G#5 (466xxx)
E5  (022xxx)  F#5 (244xxx)

Intro: Guitar 1 - all the notes on the E string are palm muted

E|--------------------------------------------------------------|
B|--------------------------------------------------------------|
G|--------------------------------------------------------------|
D|--------------------------------------------------------------|
A|------5-----5-----5-----5-----5----7-----7-----7-----7-----7--|
E|--7-7---7-7---7-7---7-7---7-7----5---5-5---5-5---5-5---5-5----|
cont.  After the above is played twice, Guitar 1 plays this;
E|-------------------------|
B|-------------------------|
G|-------------------------|
D|-------------------------|
A|-5h7p5h7p5h7p5h7p5h7p5---|
E|-------------------------|

Intro:  Guitar 2 - there is some feedback before the chord is played
[ Tab from: http://www.guitartabs.cc/tabs/g/gang_green/ill_worry_about_it_monday_tab.html ]
E|------------------------------------------|
B|------------------------------------------|
G|------------------------------------------|
D|--9--------------------------7------------|
A|--9--------------------------7------------|
E|--7--------------------------5------------|
cont. played palm muted
E|------------------------------------------------------------------|
B|------------------------------------------------------------------|
G|------------------------------------------------------------------|
D|-9-9-9-9-9-9-9-9-9-9-9-9-9-9-9-9-7-7-7-7-7-7-7-7-7-7-7-7-7-7-7-7--|
A|-9-9-9-9-9-9-9-9-9-9-9-9-9-9-9-9-7-7-7-7-7-7-7-7-7-7-7-7-7-7-7-7--|
E|-7-7-7-7-7-7-7-7-7-7-7-7-7-7-7-7-5-5-5-5-5-5-5-5-5-5-5-5-5-5-5-5--|
cont. the B5 chord is palm muted
E|---------------------------------------------------|
B|---------------------------------------------------|
G|---------------------------------------------------|
D|-9-9-9-9-9-9-9-9-9-9-9-9-9-9-9-9--7----6---4---2---|
A|-9-9-9-9-9-9-9-9-9-9-9-9-9-9-9-9--7----6---4---2---|
E|-7-7-7-7-7-7-7-7-7-7-7-7-7-7-7-7--5----4---2---0---|

Verse:

E|-------------------------------------------------------------------------|
B|-------------------------------------------------------------------------|
G|-7-------------7-------------7-------------------------------------------|
D|-7--8--9--5----7--8--9--10---7--8--9--5--9-9-9-9-9-9-9-9-7-7-7-7-7-7-7-7-|
A|-5--8--9--5----5--8--9--10---5--8--9--5--9-9-9-9-9-9-9-9-7-7-7-7-7-7-7-7-|
E|----6--7--3-------6--7---8------6--7--3--7-7-7-7-7-7-7-7-5-5-5-5-5-5-5-5-|

Chorus:

E|------------------------------------------------------------------|
B|------------------------------------------------------------------|
G|-------------------------------------------------5-5-5-5-5-5-5-5--|
D|-3-3-3-3-3-3-3-3-5-5-5-5-5-5-5-5-2-2-2-2-2-2-2-2-5-5-5-5-5-5-5-5--|
A|-3-3-3-3-3-3-3-3-5-5-5-5-5-5-5-5-2-2-2-2-2-2-2-2-3-3-3-3-3-3-3-3--|
E|-1-1-1-1-1-1-1-1-3-3-3-3-3-3-3-3-0-0-0-0-0-0-0-0------------------|
cont.
E|------------------------------------------------------------------|
B|------------------------------------------------------------------|
G|---------------------------------5-5-5-5-5-5-5-5-5-5-5-5-5-5-5-5--|
D|-3-3-3-3-3-3-3-3-5-5-5-5-5-5-5-5-5-5-5-5-5-5-5-5-5-5-5-5-5-5-5-5--|
A|-3-3-3-3-3-3-3-3-5-5-5-5-5-5-5-5-3-3-3-3-3-3-3-3-3-3-3-3-3-3-3-3--|
E|-1-1-1-1-1-1-1-1-3-3-3-3-3-3-3-3----------------------------------|


That's all.  Email me or IM me with your ?'s.  Later.
Comments