Gang Green - 6000 Crucified Slaves Chords & Tabs

 

6000 Crucified Slaves Chords & Tabs

Gang Green Chords & Tabs

Version: 1 Type: Tab 0 ratings
1 star 2 stars 3 stars 4 stars 5 stars
comments

6000 Crucified Slaves Tab

   
Artist:  Gang Green
Song:  6000 Crucified Slaves
Album:  Another Case of Brewtality
Tabbed by:  Rick  (rickrack97@hotmail.com)
AIM:  unhlax23

Chords:

D5  (x577xx)  C5   (x355xx)
A5  (577xxx)  B5   (x244xx)
G5  (355xxx)  C#5  (x466xx)
G#5 (466xxx)  E2   (x799xx)
E5  (022xxx)  F2   (x8-10-10xx)

Intro:

E|---------------------|--------------------------------------------------|
B|---------------------|--------------------------------------------------|
G|---------------6-7-4-|-------------------------------6-6-6-7-7-7-4-4-4--|
D|--6-7---2-4--7-6-7-4-|6-6--7-7-7--2-2--4-4-4---7-7-7-6-6-6-7-7-7-4-4-4--|
A|--6-7---2-4--7-4-5-2-|6-6--7-7-7--2-2--4-4-4---7-7-7-4-4-4-5-5-5-2-2-2--|
E|--4-5---0-2--5-------|4-4--5-5-5--0-0--2-2-2---5-5-5--------------------|
         once                             twice

Verse:
[ Tab from: http://www.guitartabs.cc/tabs/g/gang_green/6000_crucified_slaves_tab.html ]
E|----------------------------------------------|----------|
B|----------------------------------------------|----------|
G|--5--5-5-5-5-5-5--4-5-4-5--5555555555555555---|--10--5---|
D|--5--5-5-5-5-5-5--4-5-4-5--5555555555555555---|--10--5---|
A|--3--3-3-3-3-3-3--2-3-2-3--3333333333333333---|---8--3---|
E|----------------------------------------------|----------|
       |----------|          |---------------|    after 2nd time
        palm mute                palm mute

Chorus:

E|--------------------------------------------------|
B|--------------------------------------------------|
G|-7-7-7-7-7-7--------------------------------------|
D|-7-7-7-7-7-7-7-7-7-7-7-7-5-5-5-5-5-5-5-5-5-5-5-5--|
A|-5-5-5-5-5-5-7-7-7-7-7-7-5-5-5-5-5-5-5-5-5-5-5-5--|
E|-------------5-5-5-5-5-5-3-3-3-3-3-3-3-3-3-3-3-3--|
cont.
E|--------------------------------------------------|
B|--------------------------------------------------|
G|-7-7-7-7-7-7-9-9-9-9-9-9--------------------------|
D|-7-7-7-7-7-7-9-9-9-9-9-9-5-5-5-5-5-5-7-7-7-7-7-7--|
A|-5-5-5-5-5-5-7-7-7-7-7-7-5-5-5-5-5-5-7-7-7-7-7-7--|
E|-------------------------3-3-3-3-3-3-5-5-5-5-5-5--|

That's it.  Easy and fun.  Later.
Comments