Gandalf Murphy And The Slambovian Circus Of Dreams - Slambovia Chords & Tabs

 

Slambovia Chords & Tabs

Gandalf Murphy And The Slambovian Circus Of Dreams Chords & Tabs

Version: 1 Type: Bass Tab

Slambovia Bass Tab

Slambovia
Gandalf Murphy and the Slambovian Circus of Dreams 

The hammers/pull offs are on the cd, 
but it still sounds great without them. Good luck.

I canít tell if the bass plays during the chorus so I didnít tab it but everything else is near perfect.

Its pretty simple and repetitive but I did it all just in case 

Intro:

G|------------------------------------------------------------||
D|0--5p3--0-------0--5p3--0-------0--5p3--0-------0--5p3--0---|| stop
A|-----------0h3-------------0h3-------------0h3--------------||
E|------------------------------------------------------------||
[ Tab from: http://www.guitartabs.cc/tabs/g/gandalf_murphy_and_the_slambovian_circus_of_dreams/slambovia_btab.html ]
Verse:
G|-----------------------------------------------------------------||
D|0--5p3--0-------0--5p3--0-------0--5p3--0-------0--5p3--0--------||
A|-----------0h3-------------0h3-------------0h3-------------0h3---||
E|-----------------------------------------------------------------||

Chorus:

G|-------------------------------------------------------||
D|--5--5--------5--5--------0--5p3--0-------0--5p3--0----||
A|--------5--5--------5--5-------------0h3---------------||
E|-------------------------------------------------------||

After Chorus:

G|-----------------------------||
D|-0--5p3--0-------0--5p3--0---||
A|------------0h3--------------||
E|-----------------------------||

I can give you a repetive version of this with words if you want

-Adam Brunell

email:Atwbthe3rd@yahoo.com