Gamma Ray - Short As Hell Chords & Tabs

 

Short As Hell Chords & Tabs

Gamma Ray Chords & Tabs

Version: 1 Type: Tab 0 ratings
1 star 2 stars 3 stars 4 stars 5 stars
comments

Short As Hell Tab

Short As Hell
Band : Gamma Ray
Album: Powerplant (1999)
Transcribed by Thiago Del Ciello (Brazil)
It's easy to play. Enjoy!

Tune down ½ step

Intro (clean guitar)- 2 times
E------------------------------------------------------------------------
B------------------------------------------------------------------------
G------------------------------------------------------------------------
D------------------------------------------------------------------------
A----7---5---7---8---7---5---7-----------7---5---7---8---7---5--8-7-5----
E--0---0---0---0---0---0---0---5h6p5-3-0---0---0---0---0---0----6-5-3----

Alright! (distortion guitar)- 2 times
E------------------------------------------------------------------------
B------------------------------------------------------------------------
G------------------------------------------------------------------------
D------------------------------------------------------------------------
A----7---5---7---8---7---5---7-----------7---5---7---8---7---5--8--7--5--
E--0---0---0---0---0---0---0---5h6p5-3-0---0---0---0---0---0----6--5--3-—

So now we talk about destruction....
E------------------------------------------------------------------------
B------------------------------------------------------------------4-6---
G------------------------------------------------------------------2-4---
D-----------------------------------2-4------------------6-5-4-5-6-------
A-----------------------------2-3-4----------------------4-3-2-3-4-------
E—-0h2-222-0h2-2-0h2-2-0h2-22-----------0h2-222-0h2-2222-----------------

E------------------------------------------------------------------------
B------------------------------------------------------------------4-6---
G------------------------------------------------------------------2-4---
D-----------------------------------2-4------------------6-5-4-5-6-------
A-----------------------------2-3-4----------------------4-3-2-3-4-------
E—-0h2-222-0h2-2-0h2-2-0h2-22-----------0h2-222-0h2-2222-----------------

E------------------------------------------------------------------------
B------------------------------------------------------------------------
G------------------------------------------------------------------------
D------------------------------------------------------------------------
A----7---5---7---8---7---5---7-----------7---5---7---8---7---5--8--7--5--
E--0---0---0---0---0---0---0---5h6p5-3-0---0---0---0---0---0----6--5--3-—

Our Future shines in darkest colors...
E------------------------------------------------------------------------
B------------------------------------------------------------------4-6---
G------------------------------------------------------------------2-4---
D-----------------------------------2-4------------------6-5-4-5-6-------
A-----------------------------2-3-4----------------------4-3-2-3-4-------
E—-0h2-222-0h2-2-0h2-2-0h2-22-----------0h2-222-0h2-2222-----------------


E------------------------------------------------------------------------
B------------------------------------------------------------------4-6---
G------------------------------------------------------------------2-4---
D-----------------------------------2-4------------------6-5-4-5-6-------
A-----------------------------2-3-4----------------------4-3-2-3-4-------
E—-0h2-222-0h2-2-0h2-2-0h2-22-----------0h2-222-0h2-2222-----------------

Hey mother mercy leave me be...
E--------------------------------|---------------------------------------
B--------------------------------|---------------------------------------
G--2-----2-----------------------|---------------------------------------
D--2-----2-----6-----------------|---------------------------------------
A--0-----0-----6-----------------|---------------------------------------
E--------------4-4-4-4-4-4-4-4-4-|---------------------------------------


Time...........................will wait for noone!
E------------------------------------------------------------------------
B------------------------------------------------------------------------
G------------------------------------------------------------------------
D------------------------------------------------------------------------
A----7---5---7---8---7---5---7-----------7---5---7---8---7---5--8--7-10--
E--0---0---0---0---0---0---0---5h6p5-3-0---0---0---0---0---0----6--5--8—
[ Tab from: http://www.guitartabs.cc/tabs/g/gamma_ray/short_as_hell_tab.html ]
Time...........................is short as hell!
E------------------------------------------------------------------------
B------------------------------------------------------------------------
G------------------------------------------------------------------------
D------------------------------------------------------------------------
A----7---5---7---8---7---5---7-----------7---5---7---8---7---5--8--7-10--
E--0---0---0---0---0---0---0---5h6p5-3-0---0---0---0---0---0----6--5--8—

Clean guitar...
E------------------------------------------------------------------------
B------------------------------------------------------------------------
G------------------------------------------------------------------------
D------------------------------------------------------------------------
A----7---5---7---8---7---5---7-----------7---5---7---8---7---5-----------
E--0---0---0---0---0---0---0---5h6p5-3-0---0---0---0---0---0---6-5h6p5—3-

Time!    Guitar solos:
E-----|------------------------------------------------------------------
B-----|------------------------------------------------------------------
G-----|------------------------------------------------------------------
D--2--|------------------------------------------------------------------
A--2--|--7-99999999999999-10-10-9-9-7-7-------7-99999999999999-10-10-9-9-
E--0--|---------------------------------10-10----------------------------

E--------------------------------|---------------------------------------
B--------------------------------|---------------------------------------
G--------------------------------|---------------------------------------
D--------------------------------|---------------------------------------
A--7-7-----------------7-7-10-10-|----7---5---7---8---7---5---7----------
E------10-10-9-9-10-10-----------|--0---0---0---0---0---0---0---5h6p5-3—-



E-----------------------------------|------------------------------------
B-----------------------------------|------------------------------------
G-----------------------------------|------------------------------------
D-----------------------------------|------------------------------------
A----7---5---7---8---7---5--8--7--5-|------------------------------------
E--0---0---0---0---0---0----6--5--3-|------------------------------------

All is lost..............
E-------------------------------------------------------------------|----
B-------------------------------------------------------------------|----
G-------------------------------------------------------------------|----
D--9--7--9--------------------------5--5--5--5-5-5-5/7—-2x----7---2-|----
A--7--5--7--7-9-10-12-10h12p10-9-7--3--3--3--3-3-3-3/5--------7---2-|----
E-------------------------------------------------------------5---0-|----

E--------------------|-----|---------------------------------------------
B--------------------|-----|---------------------------------------------
G--------------------|-----|---------------------------------------------
D—----Bass Line------|--7--|---------------------------------------------
A--------------------|--7--|---------------------------------------------
E--------------------|--5--|---------------------------------------------

Time...........................will wait for noone!
E------------------------------------------------------------------------
B------------------------------------------------------------------------
G------------------------------------------------------------------------
D------------------------------------------------------------------------
A----7---5---7---8---7---5---7-----------7---5---7---8---7---5--8--7-10--
E--0---0---0---0---0---0---0---5h6p5-3-0---0---0---0---0---0----6--5--8—

Time...........................is short as hell!
E------------------------------------------------------------------------
B------------------------------------------------------------------------
G------------------------------------------------------------------------
D------------------------------------------------------------------------
A----7---5---7---8---7---5---7-----------7---5---7---8---7---5--8--7-10--
E--0---0---0---0---0---0---0---5h6p5-3-0---0---0---0---0---0----6--5--8—-

E-----------------------------------------------------------------------
B-----------------------------------------------------------------------
G-----------------------------------------------------------------------
D----9---7---9--10---9---7---9-------------9---7---9--10---9---7--------
A----7---5---7---8---7---5---7--8--7--5----7---5---7---8---7---5--8--7—-5
E--0---0---0---0---0---0---0----6--5--3--0---0---0---0---0---0----6--5—-3

Is short as hell!
E----------|
B----------|
G----------|
D--8--7--7-|
A--8--7--7-|
E--6--5--5-|


Comments, send an e-mail to taunting_cobras@hotmail.com







Comments