Gamma Ray - Send Me A Sign Chords & Tabs

 

Send Me A Sign Chords & Tabs

Gamma Ray Chords & Tabs

Version: 1 Type: Bass Tab 0 ratings
1 star 2 stars 3 stars 4 stars 5 stars
comments

Send Me A Sign Bass Tab

   
BASS TAB

Song:Send Me A Sign
Band:Gamma Ray
Album: Powerplant
Tabbed by:Antonio Canale Watson84@libero.it

Tablature explanation :
------------------------
        \ / : slide
          h : hammer-on
          p : pull-off

SArebbe un semitono in basso

INTRO:Only Keyboard

Gb--------------------------------------------------------------------------------|
Db--------------------------------------------------------------------------------|
Ab--7--3--5---------------7--3-----5-5-5-5-5-5--7--3--5---------------7--3-----5--|
Eb-----------5-5-5-5-5-5--------3------------------------5-5-5-5-5-5--------3-----|


Gb-----------------------------------------------------------|
Db-----------------------------------------------------------|
Ab------------------3-3-3-3-3-3---2-2-2-2-2-2---0-0-0-0-0-0--|
Eb--3-3h5-5-5-5-5-5------------------------------------------| due volte


Gb------------------------------------------------------------------------------------|
Db------------------------------------------------------------------------------------|
Ab--2-2-2-2-2-2-5-5-5-5-5-5-------------2-2-2-2-2-2-2-2-2-2-5-5-5-5-5-5-------------2-|
Eb--------------------------5-5-5-5-5-5---------------------------------5-5-5-5-5-5---|
   On a stotytellers night...

[ Tab from: http://www.guitartabs.cc/tabs/g/gamma_ray/send_me_a_sign_btab.html ]
BRIDGE:
Gb------------------------------------------------------------------------|
Db------------------------------------------------------------------------|
Ab------------------5-5-5-5-5-5-5-5-----------------2-2-2-2-2-2-2-2-------|
Eb--3-3-3-3-3-3-3-3-----------------5-5-5-5-5-5-5-5-----------------3-3-3-|
   He had the gift of prophecy.....


Gb--------------------------------------------|
Db--------------------------------------------|
Ab--------------------------------------------|
Eb--3-3-3-3-3-4-4-4-4-4-4-4-4-5-5-5-5-5-5-5-5-|


CHORUS

Gb-------------------------------------------------------------------------------|
Db-------------------------------------------------------------------------------|
Ab--2--------7-7-7-7-7-7--2-----5---------------7--3--5---------------7--3-----5-|
Eb-----3--5------------------3-----5-5-5-5-5-5-----------5-5-5-5-5-5--------3----|


Di nuovo la strofa il ponte ed il rit poi per l'assolo

Gb------------------------------------------------------------------------------------|
Db------------------------------------------------------------------------------------|
Ab--2-2-2-2-2-2-5-5-5-5-5-5-------------2-2-2-2-2-2-2-2-2-2-5-5-5-5-5-5-------------2-|
Eb--------------------------5-5-5-5-5-5---------------------------------5-5-5-5-5-5---|
ripetere il ponte e poi

Gb---------------------------|
Db---------------------------|
Ab--7--3-----5--7--3-----5---|
Eb--------5-----------5------|


G------------------------||
D------------------------||
A--2--2--2--2--0--2------||
E------------------------||
					BUON LAVORO !!

Please enjoy. I found it in Franch site.

Just Enjoy ~!

GAMMA RAY
Comments