Gamma Ray - Heading For Tomorrow Chords & Tabs

 

Heading For Tomorrow Chords & Tabs

Gamma Ray Chords & Tabs

Version: 1 Type: Tab 1 rating
1 star 2 stars 3 stars 4 stars 5 stars
comments

Heading For Tomorrow Tab

Heading For Tomorrow
Band : Gamma Ray
Album: Heading For Tomorrow (1989)
Transcribed by Thiago Del Ciello (Brazil)
E-mail: tdelciello@bol.com.br
             taunting_cobras@hotmail.com

Intro
E--------------------------------------------|---------------------------
B--------------------------------------------|---------------------------
G--------------------------------------------|---------------------------
D--9--7--7/9--9--7--9--4--9--7—-7/9--9--7--9-|--9--7--5--5—-5\4--5--4--5-
A--7--5—-5/7--7--5--7--2--7--5—-5/7--7--5--7-|--7--5--3--3—-3\2--3--2--3-
E--------------------------------------------|---------------------------

E------------------|-----------------------------------------------------
B------------------|---------------------------------------------------8-
G------------------|---------------------------------------------------7-
D--7--7/9--9--7--9-|--7/9-----9----------------------------9-----9\7---5-
A--5--5/7--7--5--7-|--5/7-7-7-7-7-7-7-6-5-7--5--5--5-------7-7-7-7\5-5---
E------------------|----------------------5--3--3—-3p0-0-0---------------

E--------------------------------------------------------------|-------|-
B-10------------------------------------------------------8-10-|-------|-
G--9------------------------------------------------------7--9-|-------|-
D--7—-7/9--9-----9----------------------------9-----9\7---5--7-|---9---|-
A-----5/7--7-7-7-7-7-7-7-6-5-7--5--5--5-------7-7-7-7\5-5------|---7---|-
E----------------------------5--3--3—-3p0-0-0------------------|---0---|-

E------------------------------------------------------------------------
B---------------------------------------------------8-10-----------------
G---------------------------------------------------7--9-----------------
D--7/9-----9----------------------------9-----9\7---5--7—-7\9-----9------
A--5/7-7-7-7-7-7-7-6-5-7--5--5--5-------7-7-7-7\5-5-------5\7-7-7-7-7-7-7
E----------------------5--3--3—-3p0-0-0----------------------------------

E-----------------------------------------|--------------|
B------------------------------------8-10-|--------------|
G------------------------------------7--9-|--7----4---9--|
D------------------------9-----9\7---5--7-|--7----4---9--|
A--6-5--7--5--5--5-------7-7-7-7\5-5—-----|--5----2---7--|
E-------5--3--3—-3p0-0-0------------------|--------------|

Time has passed...
E--------------------------------------------------------|
B--------------------------------------------------------|
G----------------7-7-------------------------------------|
D—-7/9-----9-----5-5-9-----9\7-----7-7\4/7-9-9---2 Times-|
A—-5/7-7-7-7-7-7-----7-7-7-7\5-5-5-5-5\2/5-7-7-----------|
E--------------------------------------------------------|







God bless the children.........
E------------------------------------------------------------------------
B------------------------------------------------------------------------
G------------------------------------------------------------------------
D----------------------------7---------------------------7---------------
A—-7/9-----7/9-----7/9-------5-7/9-----7/9-----7/9-------5-7-----7-----7-
E—-5/7-7-7-5/7-7-7-5/7-7-5-7---5/7-7-7-5/7-7-7-5/7-7-5-7---5-5-5-5-5-5-5-

E--------------------------------------------|
B--------------------------------------------|
G--------------------------------------------|
D--------------------------------------------|
A--------(5)-7/9-----7/9---------------------|
E--5-5-5-----5/7-7-7-5/7-7-7-7-8-5-7-3-5-2-3-|

E------------------------------------------------------------------------
B------------------------------------------------------------------------
G------------------------------------------------------------------------
D----------------------------7---------------------------7---------------
A—-7/9-----7/9-----7/9-------5-7/9-----7/9-----7/9-------5-7-----7-----7-
E—-5/7-7-7-5/7-7-7-5/7-7-5-7---5/7-7-7-5/7-7-7-5/7-7-5-7---5-5-5-5-5-5-5-

E--------------------------------------------|
B--------------------------------------------|
G--------------------------------------------|
D--------------------------------------------|
A--------(5)-7/9-----7/9---------------------|
E--5-5-5-----5/7-7-7-5/7-7-7-7-8-5-7-3-5-2-3-|

Where will the children go...
E------------------------------------------------------------------------
B------------------------------------------------------------------------
G------------------------------------------------------------------------
D--5---------4----------------9-----7/9-----9-----5-------9--------------
A--5---------4--------7-7-7-7-7-7-7-5/7-7-7-7-5h7---7-7-7-7-7-7-7p5---5--
E--3—3h5p3-3-2--\7~~--0-0-0-0---0-0-----0-0---------0-0-0-----------7---7

E--------------------------|
B--------------------------|
G--------------------------|
D--------5---------4-------|
A--------5---------4-------|
E--6-5\3-3-3h5p3-3-2--\7~~-|

Tomoooooooooorow...........
E------------------------------------------------------------------------
B---------------------------------------------------8-10-----------------
G---------------------------------------------------7--9-----------------
D--7/9-----9----------------------------9-----9\7---5--7-7/9-----9-------
A--5/7-7-7-7-7-7-7-6-5-7--5--5--5-------7-7-7-7\5-5------5/7-7-7-7-7-7-7-
E----------------------5--3--3—-3p0-0-0----------------------------------

---------------------------------------|-------|
----------------------------------8-10-|-------|
----------------------------------7--9-|-------|
--—--7/9--9-----9-----9-----9\7---5--7-|---9---|
-6-5-7--5--5--5-------7-7-7-7\5-5------|---7---|
---------------------------------------|---0---|
Is anybody there to claim...
E--------------------------------------------------------|
B--------------------------------------------------------|
G----------------7-7-------------------------------------|
D—-7/9-----9-----5-5-9-----9\7-----7-7\4/7-9-9---2 Times-|
A—-5/7-7-7-7-7-7-----7-7-7-7\5-5-5-5-5\2/5-7-7-----------|
E--------------------------------------------------------|

Where are we going....
E------------------------------------------------------------------------
B------------------------------------------------------------------------
G------------------------------------------------------------------------
D----------------------------7---------------------------7---------------
A—-7/9-----7/9-----7/9-------5-7/9-----7/9-----7/9-------5-7-----7-----7-
E—-5/7-7-7-5/7-7-7-5/7-7-5-7---5/7-7-7-5/7-7-7-5/7-7-5-7---5-5-5-5-5-5-5-

E--------------------------------------------|
B--------------------------------------------|
G--------------------------------------------|
D--------------------------------------------|
A--------(5)-7/9-----7/9---------------------|
E--5-5-5-----5/7-7-7-5/7-7-7-7-8-5-7-3-5-2-3-|

E------------------------------------------------------------------------
B------------------------------------------------------------------------
G------------------------------------------------------------------------
D----------------------------7---------------------------7---------------
A—-7/9-----7/9-----7/9-------5-7/9-----7/9-----7/9-------5-7-----7-----7-
E—-5/7-7-7-5/7-7-7-5/7-7-5-7---5/7-7-7-5/7-7-7-5/7-7-5-7---5-5-5-5-5-5-5-

E--------------------------------------------|
B--------------------------------------------|
G--------------------------------------------|
D--------------------------------------------|
A--------(5)-7/9-----7/9---------------------|
E--5-5-5-----5/7-7-7-5/7-7-7-7-8-5-7-3-5-2-3-|

Where will the children go...
E------------------------------------------------------------------------
B------------------------------------------------------------------------
G------------------------------------------------------------------------
D--5---------4----------------9-----7/9-----9-----5-------9--------------
A--5---------4--------7-7-7-7-7-7-7-5/7-7-7-7-5h7---7-7-7-7-7-7-7p5---5--
E--3—3h5p3-3-2--\7~~--0-0-0-0---0-0-----0-0---------0-0-0-----------7---7

E------------------------------------------------------------------------
B------------------------------------------------------------------------
G------------------------------------------------------------------------
D--------5---------4----------------9-------------9-----5-------9--------
A--------5---------4--------7-7-7-7-7-7-7-5h7-7-7-7-5h7---7-7-7-7-7-7-7p5
E—-6-5\3-3—3h5p3-3-2--\7~~--0-0-0-0---0-0-----0-0---------0-0-0----------
[ Tab from: http://www.guitartabs.cc/tabs/g/gamma_ray/heading_for_tomorrow_tab.html ]
E----------------|---------------------------|
B----------------|---------------------------|
G----------------|---------------------------|
D--------------2-|---Long Part Of Headache---|
A----5---------2-|---------------------------|
E--7---7-6-5\3-0-|---------------------------|
7:59
E---------------------------------------------------------------------|
B---------------------------------------------------------------------|
G---------------------------------------------------------------------|
D--7/9---------5---4---------4---2---1-4-4-4-4/7-7—--Repeat 4 Times---|
A--5/7---------7---5---------5---3---2-2-2-2-2/5-5--------------------|
E------0-0-0-0---0---0-0-0-0---0---0----------------------------------|

Hey you, hey you...
E--------------------------------------------------------------|
B--------------------------------------------------------------|
G--------------------------------------------------------------|
D--9-----9-----9-9-8-----8-----8-8-9-----9-----9-9-10----10-10-|
A--7-----7-----7-7-7-----7-----7-7-7-----7-----7-7--7-----7--7-|
E----0-0---0-0-------0-0---0-0-------0-0---0-0--------0-0------|

E------------------------------------------------------------|
B------------------------------------------------------------|
G------------------------------------------------------------|
D--9-----9-----9-9-8-----8-----8-8-9-----9-----9-7-9-9-7-9---|
A--7-----7-----7-7-7-----7-----7-7-7-----7-----7-5-7-7-5-7-9-|
E----0-0---0-0-------0-0---0-0-------0-0---0-0-------------7-|

E--------------------------------------------------------------|
B--------------------------------------------------------------|
G--------------------------------------------------------------|
D--9-----9-----9-9-8-----8-----8-8-9-----9-----9-9-10----10-10-|
A--7-----7-----7-7-7-----7-----7-7-7-----7-----7-7--7-----7--7-|
E----0-0---0-0-------0-0---0-0-------0-0---0-0--------0-0------|

E----------------------------------------------------------|
B----------------------------------------------------------|
G----------------------------------------------------------|
D--9-----9-----9-9-8-----8-----8-8-9-----9-----9-7-9-9-7-9-|
A--7-----7-----7-7-7-----7-----7-7-7-----7-----7-5-7-7-5-7-|
E----0-0---0-0-------0-0---0-0-------0-0---0-0-------------|

E----------------------------------|-------------------------------------
B----------------------------------|-------------------------------------
G----------------------------------|-------------------------------------
D—4(5)(5)-2-----2~~-7/9-9-7-9--9-7-|--7/9-7-9--9(10)(10)-7------(9)~~-7/9
A-----------2-5-----5/7-7-5-7--7-5-|--5/7-5-7--------------7-10-------5/7
E----------------------------------|-------------------------------------

E-------------|
B-------------|
G-------------|
D--9-7-9--9-7-|
A--7-5-7--7-5-|
E-------------|








E--------------------------------------------------------------|
B--------------------------------------------------------------|
G--------------------------------------------------------------|
D--9-----9-----9-9-8-----8-----8-8-9-----9-----9-9-10----10-10-|
A--7-----7-----7-7-7-----7-----7-7-7-----7-----7-7--7-----7--7-|
E----0-0---0-0-------0-0---0-0-------0-0---0-0--------0-0------|

E------------------------------------------------------------|
B------------------------------------------------------------|
G------------------------------------------------------------|
D--9-----9-----9-9-8-----8-----8-8-9-----9-----9-7-9-9-7-9---|
A--7-----7-----7-7-7-----7-----7-7-7-----7-----7-5-7-7-5-7-9-|
E----0-0---0-0-------0-0---0-0-------0-0---0-0-------------7-|

E--------------------------------------------------------------|
B--------------------------------------------------------------|
G--------------------------------------------------------------|
D--9-----9-----9-9-8-----8-----8-8-9-----9-----9-9-10----10-10-|
A--7-----7-----7-7-7-----7-----7-7-7-----7-----7-7--7-----7--7-|
E----0-0---0-0-------0-0---0-0-------0-0---0-0--------0-0------|

E------------------------------------------------------------|
B------------------------------------------------------------|
G------------------------------------------------------------|
D--9-----9-----9-9-8-----8-----8-8-9-----9-----9-7-9-9-7-9---|
A--7-----7-----7-7-7-----7-----7-7-7-----7-----7-5-7-7-5-7-9-|
E----0-0---0-0-------0-0---0-0-------0-0---0-0-------------7-|

When we are Born.......
E------------------------------------------------------------|
B------------------------------------------------------------|
G------------------------------------------------------------|
D--9-----------7-5-3~-5-4-------9-----------7-5-3~-5-4-------|
A--7-7-9-10-5~--------3-2-5-4-2-7-7-9-10-5~--------3-2-5-4-2-|
E--0----------------------3-2-0-0----------------------3-2-0-|

We are headind for tomorrow....
E-------------------------------------|
B-------------------------------------|
G-------------------------------------|
D--9-7-7/9-9-7-9---9-7-5--------------|
A--7-5-5/7-7-5-7-9-7-5-3--------------|
E----------------7---------0-bar down-|

E------------------------------------------------------------------------
B------------------------------------------------------------------------
G---------------------------------------------------------------------9--
D--8--9--8--9-------------8-------------9-------------8-------------9-9--
A--6--7--6--7-7-7-7-7-7-7-6-6-6-6-6-6-6-7-7-7-7-7-7-7-6-6-6-6-6-6-6-7-7--
E------------------------------------------------------------------------

E----------|---------------------|
B----------|---------------------|
G--9-9-9-9-|---------------------|
D--9-9-9-9-|-----Guitar Solo-----|
A--7-------|---------------------|
E----------|---------------------|


E------------------------------------------------------------------------
B------------------------------------------------------------------------
G------------------------------------------------------------------------
D------------------------------------------------------------------------
A------------------------------------------------------------------------
E--13-12-12-12-12-12-13-12-12-12-12-12-13-12-12-15-12-12-12-12-12--13-12-

E---------------------------8------8------10------10----------------|
B--------------------------11(13)-11(13)—-13(15)--13(15)------------|
G-----------------------------------------------------------4 Times-|
D-------------------------------------------------------------------|
A------------------------0------------------------------------------|
E--10-12-10-8-10-8-7-8-7--------------------------------------------|

E------------------------------------------------------------------------
B------------------------------------------------------------------------
G------------------------------------------------------------------------
D--9------10-------9-------10-9-7---------9------10-------9-------10-9-7-
A--7-------7-------7--------------10-9-7--7-------7-------7--------------
E----0-0-0---0-0-0---0-0-0------------------0-0-0---0-0-0---0-0-0--------

E------------------------------------------------------------------------
B------------------------------------------------------------------------
G------------------------------------------------------------------------
D--10-9-7--7-------9-------7-7-7-7-7-9-10-9------10-10-9-7-9-7----7------
A----------5-------5----------------------7-------7------------10---10-9-
E------------0-0-0---0-0-0------------------0-0-0------------------------

E---------|
B---------|
G---------|
D---------|
A--10-9-7-|
E---------|


E------------------------------------------------------------------------
B------------------------------------------------------------------------
G------------------------------------------------------------------------
D------------------------------------------------------------------------
A------------------------------------------------------------------------
E--13-12-12-12-12-12-13-12-12-12-12-12-13-12-12-15-12-12-12-12-12--13-12-

E------------------------------------------------|
B------------------------------------------------|
G------------------------------------------------|
D--------------------------5-5--7-7-----2 Times--|
A------------------------0-3-3--5-5--------------|
E--10-12-10-8-10-8-7-8-7-------------------------|








E---------------------------------------------------------------|
B---------------------------------------------------------------|
G---------------------------------------------------------------|
D--9------10-------9------10-------9-10--9-10--9-10--9-10--9--2-|
A--7-------7-------7-------7-------7--7--7--7--7--7--7--7--7--2-|
E----0-0-0---0-0-0---0-0-0---0-0-0----------------------------0-|

E------------------------------------------------------------------|
B------------------------------------------------------------------|
G------------------------------------------------------------------|
D------------------------------------------------------------------|
A--7---7---7---7---7---7---7---7---5---5---5---5---5---5---5---5---|
E----5---5---5---5---5---5---5---5---5---5---5---5---5---5---5---5-|

E------------------------------------------------------------|
B------------------------------------------------------------|
G------------------------------------------------------------|
D--9-----------7-5-3~-5-4-------9-----------7-5-3~-5-4-------|
A--7-7-9-10-5~--------3-2-5-4-2-7-7-9-10-5~--------3-2-5-4-2-|
E--0----------------------3-2-0-0----------------------3-2-0-|

We are heading for tomorrow....
E------------------------------------------|
B------------------------------------------|
G------------------------------------------|
D--9-7-7/9-9-7-9---5-7-7/9-9-7-9-----------|
A--7-5-5/7-7-5-7-9-3-5-5/7-7-5-7-----------|
E----------------7-------------------------|



Comments