Game Over - Khe Sahn Chords & Tabs

 

Khe Sahn Chords & Tabs

Game Over Chords & Tabs

Version: 2 Type: Bass Tab 0 ratings
1 star 2 stars 3 stars 4 stars 5 stars
comments

Khe Sahn Bass Tab

------------------------------------------------------------------
			KHE SAHN - Game Over
------------------------------------------------------------------
By: Dave Wilson (nougeypooge@hotmail.com)
>means strum 4 times   >> means strum 8 times
Intro
G|----------------------------------------------------------|
D|----------------------------------------------------------|
A|-7-7--3-3-------5------------------3-3--5-5---5-5--6-6----|
E|-----------3-3-----3-3--2-2---0-0-------------------------|

G|--------------------------------------------------------|
D|--------------------------------------------------------|
A|-7>>--3>>-------3>--2>--0..-------5>>--5--Scratching----|
E|-----------3>>---------------1..------------------------|

Verse 1
G|---------------------------------------------------------|
D|---------------------------------------------------------|
A|-7>>--3>>---------5-5----------------3>>--5>>--5>--6>----|
E|-----------3>-3-3------3>--2>---0>>----------------------|
[ Tab from: http://www.guitartabs.cc/tabs/g/game_over/khe_sahn_btab_ver_2.html ]
G|-------------------------------------------------|
D|-------------------------------------------------|
A|-7>>--3>>-------3>--2>--0>>-------5>>--5>--6>----|
E|-----------3>>---------------1>>-----------------|

Verse 2
G|---------------------------------------------------------|
D|---------------------------------------------------------|
A|-7>>--3>>---------5-5----------------3>>--5>>--5>--6>----|
E|-----------3>-3-3------3>--2>---0>>----------------------|

G|-------------------------------------------------|
D|-------------------------------------------------|
A|-7>>--3>>-------3>--2>--0..-------5>>--5>--6>----|
E|-----------3>>---------------1..-----------------|
Verse 1
Verse 1 (Under Guitar Solo)
Verse 1

Ending
G|---------------------------------------------------------|
D|---------------------------------------------------------|
A|-7>>--3>>---------5-5----------------3>>--5>>--5>--6>----|
E|-----------3>-3-3------3>--2>---0>>----------------------|

G|---------------------------------------|
D|---------------------------------------|
A|-7>>--3>>-------3>--2>--0>>--5>>-------|
E|-----------3>>--------------------3----|
Comments