Gallagher Rory - She Moved Thru The Fair Chords & Tabs

 

She Moved Thru The Fair Chords & Tabs

Gallagher Rory Chords & Tabs

Version: 1 Type: Tab 1 rating
1 star 2 stars 3 stars 4 stars 5 stars
comments

She Moved Thru The Fair Tab

Artist: Rory Gallagher
Title : She Moved Thru The Fair
Album : Meeting With The G Man
Tuning: DADDAD (Rory plays this minus a step)
Transcribed by: Cian Clarke

Take note this is the shortened version from the album "Meeting with the G man". I'm pretty sure Rory plays it tuned down a step, but it's not really worth the effort unless you want to play along with the CD. 
                      (Long strum)
D|-0-0-0-0--------0-0-0------------------0----------0---------------------------------------------------
A|-0-0-0-0--------0-0--0-----------------0----------0---------------------------------------------------
D|-0h4s5-5--0h4s5-7-7---7----------7p5p0-0----------0----------------------------------------------------------
D|-0h4s5-5--0h4s5-7-7-----7--------7p5p0-0----------0----------------------------------------------------------
A|--------------------------0---------------5-3h5p3h5-------------------------------------------------
D|----------------------------0---------------------------------------------------------------
[ Tab from: http://www.guitartabs.cc/tabs/g/gallagher_rory/she_moved_thru_the_fair_tab.html ]
D|---0------0------0------0---|---0-----0-----0------------------------
A|---0------0------0------0---|---0-----0-----0------------------------
D|-----0-------0------0-----0-|-----0-----0------0---------------------
D|-4------5------6------7-----|-4-----5-----4--------------------------
A|----------------------------|----------------------------------------
D|----------------------------|----------------------------------------

D|-0-0-0-0-0-0-0-------0------0------0------0------|---0-----0-----0------------------------
A|-0-0-0-0-0-0-0-------0------0------0------0------|---0-----0-----0------------------------
D|-4-5-4-5-5s7-7---------0-------0------0-----0----|-----0-----0------0---------------------
D|-4-5-4-5-5s7-7-----4------5------6------7--------|-4-----5-----4--------------------------
A|---------------------------------------------------------------------------------------------------
D|---------------------------------------------------------------------------------------------------
                                                                      (Long strum)
D|-0-0-0-0-0-0-0---------0-----0-0----------0--------------0------------------0----------------------
A|-0-0-0-0-0-0-0---------0-----0-0----------0-----0---------0---------------0------------------------
D|-4-5-4-5-5s7-7---------0-----0-0-7p5p0--0---------0-------0-------------0--------------------------
D|-4-5-4-5-5s7-7---0h4h5-5-4-5-7-7-------0--------------0--------------------------------------------
A|-----------------------------------------------5-----3------3-5-5p3h5-5----------------------------
D|---------------------------------------------------------------------------------------------------

(Repeat from start again, and end on 030000)...
Comments