Galactic Cowboys - Space In Your Face Chords & Tabs

 

Space In Your Face Chords & Tabs

Galactic Cowboys Chords & Tabs

Version: 1 Type: Tab 0 ratings
1 star 2 stars 3 stars 4 stars 5 stars
comments

Space In Your Face Tab

   
"Space In Your Face"
By Galactic Cowboys
Written by Alan Doss
Transcribed by Jason Luscher and Dan Saunders
Standard tuning: EADGBE

E--------------------------------------------------------------------|
B--------------------------------------------------------------------|
G--------------------------------------------------------------------|
D------------------------------------------------------------------6-|
A------1^0-------3^0-------5^0-5-7-----1^0-------3^0-------5^0-5-----|
E-0--0-----1^0-0-----3-0-0---------0-0-----1^0-0-----3-0-0-----------|
     P         P       P P         P P         P       P P

E--------------------------------------------------------------|
B--------------------------------------------------------------|
G------------------------------------------------------------2-|
D----------------------------------2-2-2-2-2-2-2-2--5--4--3--2-|
A-----1^0-------3^0-------5^0-5-7--2-2-2-2-2-2-2-2--5--4--3--0-|
E-0-0-----1^0-0-----3-0-0----------0-0-0-0-0-0-0-0--3--2--1----|
  P P         P       P P          P P P P P P P P

- this part is just a transposition of the original riff
[ Tab from: http://www.guitartabs.cc/tabs/g/galactic_cowboys/space_in_your_face_tab.html ]
E--------------------------------------------------------------------|
B--------------------------------------------------------------------|
G------------------------------------------------------------------6-|
D------1^0-------3^0-------5^0-5-7-----1^0-------3^0-------5^0-5-----|
A-0--0-----1^0-0-----3-0-0---------0-0-----1^0-0-----3-0-0-----------|
E--------------------------------------------------------------------|
     P         P       P P         P P         P       P P

E--------------------------------------------------------------|
B--------------------------------------------------------------|
G----------------------------------2-2-2-2-2-2-2-2--5--4--3----|
D-----1^0-------3^0-------5^0-5-7--2-2-2-2-2-2-2-2--5--4--3--2-|
A-0-0-----1^0-0-----3-0-0----------0-0-0-0-0-0-0-0--3--2--1--2-|
E------------------------------------------------------------0-|
  P P         P       P P          P P P P P P P P

- the interlude follows this chord pattern

E5 G5 F#5 F5    and    A5 C5 B5 A#5

- the main riff comes back after the interlude with one change, substitute

this: E-----------------       with this: E-----------------|
      B-----------------                  B-----------------|
      G-----------------                  G-----------------|
      D-------------6---                  D-----------7-6---|
      A-------5^0-5-----                  A-------5^0-------|
      E-3-0-0-----------                  E-3-0-0-----------|
          P P                                 P P

 P = palm mute
 ^ = hammer-on/pull-off
Comments