Gaelic Storm - Heart Of The Ocean Chords & Tabs

 

Heart Of The Ocean Chords & Tabs

Gaelic Storm Chords & Tabs

Version: 2 Type: Tab 0 ratings
1 star 2 stars 3 stars 4 stars 5 stars
comments

Heart Of The Ocean Tab

   
http://www.gaelicstorm.com
-------------------------------------------------------------
	 Gaelic Storm - Heart of the ocean
-------------------------------------------------------------
http://www.gaelicstorm.com
Tabbed by:DoubleAron
Email:a_ramcharitar@hotmail.com

Tuning: EADGBE
capo 3rd fret

Intro:
	Am x2	       		Em5		Cadd9
e|---------------------------------------------------------|
B|--------1-------1-----------1-----1----------3-----3-----|
G|------2-------2-----------0-----0----------0-----0-------|x4
D|----2-------2-----2-----2-----2-----2----2-----2-----2---|
A|--0-------------------2----------------3-----------------|
E|---------------------------------------------------------|


Interlude:
	hold for 5 beats			

	 Am			Dm		
e|--------------------------------2-----2------------------|
B|---------1-----1--------------3---3-----3----------------|
G|-------2-----2--------------2-------2--------------------|
D|-----2-----2--------------0------------------------------|
A|---0-----------------------------------------------------|
E|---------------------------------------------------------|

verse:
	 Am x3			Dm		
e|--------------------------------2-----2------------------|
B|---------1-----1--------------3---3-----3----------------|
G|-------2-----2--------------2-------2--------------------|x2
D|-----2-----2--------------0------------------------------|
A|---0-----------------------------------------------------|
E|---------------------------------------------------------|

	Am x2	Cadd9  Em5  Am  Em5  Cadd9  Em5  Am

Repeat verse
 	Am x3			Dm		
e|--------------------------------2-----2------------------|
B|---------1-----1--------------3---3-----3----------------|
G|-------2-----2--------------2-------2--------------------|x2
D|-----2-----2--------------0------------------------------|
A|---0-----------------------------------------------------|
E|---------------------------------------------------------|

	Am x2	Cadd9  Em5  Am  Em5  Cadd9  Em5  Am

		down below..
	Am
e|---------------|
B|------1--------|
G|------2--------|
D|------2--------|
A|------0--------|
E|---------------|

 
			Where the black waters roll     
	Am	C9
e|---------------------------------------------------------|
B|------1-------3------------------------------------------|
G|------2-------0------------------------------------------|
D|------2-------2------------------------------------------|
A|------0-------3------------------------------------------|
E|---------------------------------------------------------|

repeat intro

	Am x2	       		Em5		Cadd9
e|---------------------------------------------------------|
B|--------1-------1-----------1-----1----------3-----3-----|
G|------2-------2-----------0-----0----------0-----0-------|x4
D|----2-------2-----2-----2-----2-----2----2-----2-----2---|
A|--0-------------------2----------------3-----------------|
E|---------------------------------------------------------|

repeat Interlude
[ Tab from: http://www.guitartabs.cc/tabs/g/gaelic_storm/heart_of_the_ocean_tab_ver_2.html ]
hold for 5 beats			

	 Am			Dm		
e|--------------------------------2-----2------------------|
B|---------1-----1--------------3---3-----3----------------|
G|-------2-----2--------------2-------2--------------------|
D|-----2-----2--------------0------------------------------|
A|---0-----------------------------------------------------|
E|---------------------------------------------------------|

repeat verse

 Am x3			Dm		
e|--------------------------------2-----2------------------|
B|---------1-----1--------------3---3-----3----------------|
G|-------2-----2--------------2-------2--------------------|x2
D|-----2-----2--------------0------------------------------|
A|---0-----------------------------------------------------|
E|---------------------------------------------------------|

	Am x2	Cadd9  Em5  Am  Em5  Cadd9  Em5  Am

solo:

I really can't make it out but it's A pentatonic minor scale
on the bag pipes		Have fun!


repeat interlude

hold for 5 beats			

	 Am			Dm		
e|--------------------------------2-----2------------------|
B|---------1-----1--------------3---3-----3----------------|
G|-------2-----2--------------2-------2--------------------|
D|-----2-----2--------------0------------------------------|
A|---0-----------------------------------------------------|
E|---------------------------------------------------------|

repeat verse x2

Am x3			Dm		
e|--------------------------------2-----2------------------|
B|---------1-----1--------------3---3-----3----------------|
G|-------2-----2--------------2-------2--------------------|x2
D|-----2-----2--------------0------------------------------|
A|---0-----------------------------------------------------|
E|---------------------------------------------------------|

	Am x2	Cadd9  Em5  Am  Em5  Cadd9  Em5  Am

Candlelight dies at the window
And the night wind blows soft from the sea
Though I lie in your arms, I'm a thousand miles away
On the waves sailing fast, sailing free

Now I'm bound for the heart of the ocean
I'm riding the sea in my soul
In the dark and the deep
She will rock me to sleep
Down below... where the black waters roll

When the sea birds cry out in the morning
And the sun lays its kiss on the sand
I'll be drawn to the shore
Like so many times before
As I long to be far from the land.

Now I'm bound for the heart of the ocean
I'm riding the sea in my soul
In the dark and the deep
She will rock me to sleep
Down below... where the black waters roll

I can still hear your voice on the trade winds
I can still taste your tears on the foam
But the lure of the tide that I'm feeling inside
Will not rest till my heart finds its home

Now my heart is the heart of the ocean
There are storms from the sea in my soul
I'm restless and deep
And before I can sleep
I must go... where the black waters roll

where the black waters roll  x  3

| /  slide up
| \  slide down
| h  hammer-on
| p  pull-off
| ~  let it ring
| ()  harmonic
| x  Mute note

=============================================================================
Comments