Gackt - Redemption Chords & Tabs

 

Redemption Chords & Tabs

Gackt Chords & Tabs

Version: 1 Type: Tab

Redemption Tab

Gackt - Redemption
Tabbed By: Jordan Chan

This single by Gackt can be found on the Dirge of Cerebus Trailer.
Listen to the song for strumming patterns.

drop D tuning.
Standard tune down one whole step.

Intro:
||--21-------19--------------||
||-----19-17----19-17-17/19--||
||---------------------------||
||---------------------------||
||---------------------------||
||---------------------------||x8

||-------------------------------------------|
||-------------------------------------------|
||-------------------------------------------|
||--2-2-2-2-5-5-5-5-12-12-12-12-10-10-10-12--|
||--2-2-2-2-5-5-5-5-12-12-12-12-10-10-10-12--|
||--2-2-2-2-5-5-5-5-12-12-12-12-10-10-10-12--|

--------------------------------------||
--------------------------------------||
--------------------------------------||
--2-2-2-2-5-5-5-5-12-12-12-12-5-5-5-3-||
--2-2-2-2-5-5-5-5-12-12-12-12-5-5-5-3-||
--2-2-2-2-5-5-5-5-12-12-12-12-5-5-5-3-||x2

Chorus:
||-------------------------------------------|
||-------------------------------------------|
||-------------------------------------------|
||--2-2-2-2-5-5-5-5-12-12-12-12-10-10-10-12--|
||--2-2-2-2-5-5-5-5-12-12-12-12-10-10-10-12--|
||--2-2-2-2-5-5-5-5-12-12-12-12-10-10-10-12--|
[ Tab from: http://www.guitartabs.cc/tabs/g/gackt/redemption_tab.html ]
--------------------------------------||
--------------------------------------||
--------------------------------------||
--2-2-2-2-5-5-5-5-12-12-12-12-5-5-5-3-||
--2-2-2-2-5-5-5-5-12-12-12-12-5-5-5-3-||
--2-2-2-2-5-5-5-5-12-12-12-12-5-5-5-3-||x3

Second time through chorus, finish with.
||----------||
||----------||
||----------||
||--2-2-2-2-||
||--2-2-2-2-||
||--2-2-2-2-||x6
with slight pauses between repeats 1-5.

Bridge:
||--------------------||
||--------------------||
||--------------------||
||--2-2-3-0-2-2-2-3-0-||
||--2-2-3-0-2-2-2-3-0-||
||--2-2-3-0-2-2-2-3-0-||x8

Outtro:
||-------------------------------------------|
||-------------------------------------------|
||-------------------------------------------|
||--2-2-2-2-5-5-5-5-12-12-12-12-10-10-10-12--|
||--2-2-2-2-5-5-5-5-12-12-12-12-10-10-10-12--|
||--2-2-2-2-5-5-5-5-12-12-12-12-10-10-10-12--|

||--------------------------------------||
||--------------------------------------||
||--------------------------------------||
||--2-2-2-2-5-5-5-5-12-12-12-12-5-5-5-3-||
||--2-2-2-2-5-5-5-5-12-12-12-12-5-5-5-3-||
||--2-2-2-2-5-5-5-5-12-12-12-12-5-5-5-3-||x9

||----------||
||----------||
||----------||
||--2-2-2-2-||
||--2-2-2-2-||
||--2-2-2-2-||x3