Gabrielle - Out Of Reach Chords & Tabs

 

Out Of Reach Chords & Tabs

Gabrielle Chords & Tabs

Version: 1 Type: Bass Tab 0 ratings
1 star 2 stars 3 stars 4 stars 5 stars
comments

Out Of Reach Bass Tab

Gabrielle - Out of Reach


Main Riff

G----------------------------------------------------
D----------------------------------------------------
A-2---22---------------------2---22------------------
E---24----4-0244--2-0422--0----24----4-0244--2-0422-0


Bridge
[ Tab from: http://www.guitartabs.cc/tabs/g/gabrielle/out_of_reach_btab.html ]
(So confused,  my heart's bruised, was I ever hurt by you
G--------------------------------------------------------
D--------------------------------------------------------
A---------------4---------------------------------------1
E-4---------------------------------0-----------0---2--4-

Tabbed by Kev Mepham
Feedback appreciated :- kevinmepham@iee.org
(First attempt at tabbing)
====
Comments