Gabriel Peter - Solsbury Hill Chords & Tabs

 

Solsbury Hill Chords & Tabs

Gabriel Peter Chords & Tabs

Version: 1 Type: Tab 0 ratings
1 star 2 stars 3 stars 4 stars 5 stars
comments

Solsbury Hill Tab

   
#----------------------------------PLEASE NOTE---------------------------------#
#This file is the author's own work and represents their interpretation of the #
#song. You may only use this file for private study, scholarship, or research. #
#------------------------------------------------------------------------------##


ARTIST: Peter Gabriel
SONG: Solsbury Hill
ALBUM: Infopane (1977)

Capo II fret. 
I play the finger picking parts with a flat pick, but whatever you’re 
comfortable with. I recommend in the intro that you barre the first 
chord (an A6 or something) and leave it there… Hammer on the 3 & 4 with
 your middle and ring fingers and then hit the five with your pinky. 
This helps the quick chord changes. I’d say this is about 99.5% 
correct, but if you have any suggestions, e-mail them to 
jrhsc173@yahoo.com.au. This arrangement suits a single guitar, but 
sounds a lot fuller on a twelve string.  

INTRO                                     VERSE LEAD-IN
E --------|--2--(2)--2--2-|----2--2--0---|--------------------|
B -----0--|--2--h3---5--2-|----3--2--0---|-----0--------------|
G -1-2----|--2--(2)--2--2-|-2--2--2--1---|-1-2----------------|
D --------|--2--h4---4--2-|----4--2--2---|--------------------|
A --------|--0--(0)--0--0-|----0--0------|--------------------|
E --------|------------------------------|--------------------|

VERSE
   A E/A A A                         A E/A  A
E -0--0--0-0-------------------------0--0-0-0-------------------------|
B –2—-0--2-2-------2-----2-----2-----2--0-2-2------2-----2-----2------|
G –2--1--2-2---2-----2-----2-----2---2--1-2-2---2----2-----2-----2----|
D -2—-2--2-2-2---2-----2-----2-----2-2--2-2—2-2---2-----2-----2-----2-|
A -0--0--0-0-------------------------0--0-0-0-------------------------|
E --------------------------------------------------------------------|

 F#m E F#m                        F#m E F#m
E -2-0-2-2--------------------------2-0-2-2---------------------------|
B -2-0-2-2-------2----2-----2-------2-0-2-2-------2----2-----2--------|
G -2-1-2-2---2-----2----2-----2-----2-1-2-2---2-----2----2-----2------|
D -4-2-4-4-4---4-----4----4-----4---4-2-4-4-4---4-----4----4-----4----|
A -4-2-4-4--------------------------4-2-4-4---------------------------|
E -2-0-2-2--------------------------2-0-2-2---------------------------|
[ Tab from: http://www.guitartabs.cc/tabs/g/gabriel_peter/solsbury_hill_tab.html ]
   A E/A A A                         A E/A A
E -0--0--0-0-------------------------0--0-0-0-------------------------|
B –2—-0--2-2-------2-----2-----2-----2--0-2-2------2-----2-----2------|
G –2--1--2-2---2-----2-----2-----2---2--1-2-2---2----2-----2-----2----|
D -2—-2--2-2-2---2-----2-----2-----2-2--2-2—2-2---2-----2-----2-----2-|
A -0--0--0-0-------------------------0--0-0-0-------------------------|
E --------------------------------------------------------------------|

 F#m E F#m                        F#m E F#m
E -2-0-2-2--------------------------2-0-2-2---------------------------|
B -2-0-2-2-------2----2-----2-------2-0-2-2-------2----2-----2--------|
G -2-1-2-2---2-----2----2-----2-----2-1-2-2---2-----2----2-----2------|
D -4-2-4-4-4---4-----4----4-----4---4-2-4-4-4---4-----4----4-----4----|
A -4-2-4-4--------------------------4-2-4-4---------------------------|
E -2-0-2-2--------------------------2-0-2-2---------------------------|



Dmaj7 E/D Dmaj7                  Dmaj7 E/D Dmaj7
E -2--4-2-2-------2-----2-----2------2--4-2-2-------2-----2-----2-----|
B -2--5-2-2---2-----2-----2-----2----2--5-2-2---2-----2-----2-----2---|
G -2--4-2-2-2---2-----2-----2-----2--2--4-2-2-2---2-----2-----2-----2-|
D -0--0-0-0--------------------------0--0-0-0-------------------------|
A --------------------------------------------------------------------|
E --------------------------------------------------------------------|

Dmaj7 E/D Dmaj7                       A E/A A/D E/D
E -2-4-2-2-------2-----2-----2-----2--0--0--5---5-------------------|
B -2-5-2-2---2-----2-----2-----2---2--2--0--5---5-------------------|
G -2-4-2-2-2---2-----2-----2-----2-2--2--1--6---4-------------------|
D -0-0-0-0-------------------------0--2--2--0---0-------------------|
A ------------------------------------0--0--------------------------|
E ------------------------------------------------------------------|



CHORDS
    A  E/A   E  F#m  Dmaj7  E/D  A/D 
E --0-|-0-|--0-|-2--|-2---|--4-|--5--|
B --2-|-0-|--0-|-2--|-2---|--5-|--5--|
G --2-|-1-|--1-|-2--|-2---|--4-|--6--|
D --2-|-2-|--2-|-4--|-0---|--0-|--0--|
A --0-|-0-|--2-|-4--|-x---|--x-|--x--|
E --x-|-x-|--0-|-2--|-x---|--x-|--x--|
Comments