Gabe P Mack - Anxiety Attacks Chords & Tabs

 

Anxiety Attacks Chords & Tabs

Gabe P Mack Chords & Tabs

Version: 1 Type: Tab 0 ratings
1 star 2 stars 3 stars 4 stars 5 stars
comments

Anxiety Attacks Tab



                                                                                                       "Anxiety attacks"
^=tap fast
s=slide 

sec.1
B-----------------------------------------------------------------------------------------------------------------------------------------------------------------------------------------------------------------------------
G----------------------------------------------------------------------------------------------------------------------------------------------------------------------------------------------------------------repeat 2x-
D------------12-----------12---------------------------------- 7-------7-----------------------------3------3------------------2-------2-----------------3-------3----------------2-------2-------------------------
A---------10-----------10---------10-----------------------5-------5--------5--------------------1------1------1----------0-------0-------0--------1-------1-------1-------0-------0-------0---------------------
E-----11-----------11---------11------slide>---------6-------6--------6-----slide>-------2------2------2----------2-------2-------2--------2-------2-------2-------2-------2-------2----------------------
                                                  
sec. 2
B------------------------------------------------------------------------------------------------------------------0------0------------------2------2------------------0------0----------------------------------------------
G---------0------0-----------------2------2----------------0------0-----------------0------0---------------2------2-------2---------4------4-------4---------4------4-------4------------------------------------------
D-------2------2------2---------4------4------4---------4------4------4---------2------2------2-------0------0-------0---------0------0-------0---------2------2-------2-------------------------------------------
A-----0------0------0---------0------0------0---------2------2------2---------4------4------4--------------------------------------------------------------------------------------------------------------------------------
E----------------------------------------------------------------------------------------------------------------------------------------------------------------------------------------------------------------------------------

sec.3
B--------0------0------------------0------0--------------0-----0----------------0------0-----------------0-----------0-------- -0-----------5------5-----------------5------5---------------------------------------------
G------2------2-------2---------2------2------2-------2-----2-----2---------2------2------2---------2-----------2-------- -2-----------2------2------2---------2------2------5----------------------------------------
D----4------4-------4---------0------0------0-------4-----4-----4---------0------0------0---------4------4---3-----3--- 2-----2----0------0------0---------4------4------4----------------------------------------
A-------------------------------------------------------------------------------------------------------------------------------------------------------------------------------------------------------------------------------------
E----------------------------------------------------------------------------------------------------------------------------------------------------------------------------------------------------------------------------------------
[ Tab from: http://www.guitartabs.cc/tabs/g/gabe_p_mack/anxiety_attacks_tab.html ]
sec.4
B--------5------5-----------------5--------------5------------5-----------0----0-----------------------------------------------------------------------------------------------------------------------------------------------
G------2------2------2---------2--------------2------------2-----------2----2----2-------------------------------------------------------------------------------------------------------------------------------------------
D----0------0------0---------4------4------3------3-----2-----2----0----0----0-------------0-----0-----------------0-----0---------------0-----0--------------0-----0-------------------------------------------------
A--------------------------------------------------------------------------------------------------5-----5------5---------5-----5------5-------5-----5------5-------5-----5-----5--------------------------------------------
E------------------------------------------------------------------------------------------------0-----0------0---------7-----7------7-------0-----0------0-------7-----7-----7---------------------------------------------
sec. 5                                                                  
B---------------------------------------------------------------------------------------------------------------------------
G-------------------------------------------------------------------------------------------------------------------------------
D----------9-----9--------------9----9------------9-----9-------------------------------------------------------------
A--------7-----7-----7--------7----7----7------7-----7-----7-----------------------------------------------------------
E------8-----8-----8--------0----0----0------8-----8-----8------------------------------------------------------------
sec.6
  strum  this whole line--up and down----------------------------------------------------------------------------------------------------
 B------0---0---0---0---0--0--0--0--0--0------------------------------------------------------------------------------------------------------------- repeat 2x before sliding 
 G------9---9---9---9---9--9--9--9--9--9--------------------------------------------------------------------------------------------------------------to next riff
 D------7---7---7---7---7--7--7--7--7--7--------7--s>------9----- 9-----9------9--s>----- 7---7---7---7-slide to next riff----
  E-----0---0---0---0---0--0--0--0--0--0--------8----s>---10----10---10----10---s>---- 8---8---8---8---slide to next riff-------
sec.7
E-------- -----------------------------------------------------------------------------------------------------------------------------------------------------------------------------------------------------------------------
B----------------------------------------------------------------------------------------------------------------------------------------------------------------------------------------------------------------------------------
G------------------------------------------------------------------------------strum  ---------------------------------------------------------------------------------------------------------------------------repeat whole riff 2x
D---------strum--------------------strum--------------------2---2---2--2--2---2--2---2------------------ 2---2--2--2--2--2--2--2---2---------------------------------------------------------------------------
A--------5---5---5-------------------0--0--0-------------------2---2---2--2--2---2--2---2------------------ 2---2--2--2--2--2--2--2---2-----------------2^3^2------- 3s5s3------3-----------------------
E--------3---3---3-----3^5^3-----2--2--2----2^3^2------0---0---0--0--0---0--0---0-----3---2-------0---0--0--0--0--0--0--0---0-------3----2--------------3-----------------------5-------------------
sec.8
E-----------------------------------------------------------------------------------------------------------------------3-( ring for 3 seconds)---------------------------------------------------------------------------
B-------------------------------------0------------------------------------------------------------------------------0-------------------------------------------------------------------------------------------------------------
G-----------------0----------------------------------------------------------------------------------------------------------------------------------------------------------------------------------------------------------------
D----------------------------------------------------------------------0-----------------0---------------0-----------------------------------------------------------------------------------------------------------------------
A------2--2--2---------2--2--2---------repeat 5x----------5------------------3---------------2--------------------------------------------------------------------------------------------------------------------------
E------3--3--3---------2--2--2------------------------------6-------6---------4--------4------3-------3-------------------------------------------------------------------------------------------------------------------
sec.9                            
E-----------3--1------------------------------------------------------------------------------1---1^3^1---3s5s3---1^3^1----------3---2s3-----------------------------------------------------------------------------
B-------------------3--1---3s5s3--1----------------------1------------1------------1------------------------------------------3-2-3----------------------------------------------------------------------------------------
G-------------------------------------------0^3^0--------2------------2------------2-------------------------------------------------------------------------------------------------------------------------------------------
D----------------------------------------------------------3------3----2------2----3--------------------------------------------------------------------------------------------------------------------------------------------
A----------------------------------------------------------------------------------------------------------------------------------------------------------------------------------------------------------------------------------
E------------------------------------------------------------------------------------------------------------------------------------------------------------------------------------------------------------------------------------
                                     
Written and Performed by "Gabriel Prusmack"
if you have any questions or comment email me at: macksmacks@hotmail.com
Comments