Gabe Bondoc - Stronger Than Chords & Tabs

 

Stronger Than Chords & Tabs

Gabe Bondoc Chords & Tabs

Version: 2 Type: Tab

Stronger Than Tab

   
Uhh... yeah well this is my first time tabbing every and it's on a pretty difficult
song as far as listening and tabbing goes but I'm trying my best, so if you see any
corrections you want to make or anything you think is wrong feel free to e-mail me at
cant_touch_this13579@yahoo.com or IM me at LeterPee thanks!

Gabe Bondoc
Stronger Than - Intro

Standard Tuning: e B G D A e

x - Mute
^ - Slap
/ - Slide Up
h - Hammer On
p - Pull Off
: - Repeat

(Intro no singing)
                            ^                      ^                      ^
e|--------------------------x----------------------x----------------------x-|
B|---------------------7--7-x--7-7---7---7-----4-4-x--4-4---4---4-----2-2-x-|
G|-------------6h8-----6--6-x--6-6---6---6-----4-4-x--4-4---4---4-----1-1-x-|
D|-------4-6/8--------------x----------------------x----------------------x-|
A|--4-6----------------6----x-6-----6---6-6----4---x-4-----4---4-4----1---x-|
E|--------------------------x----------------------x----------------------x-|
[ Tab from: http://www.guitartabs.cc/tabs/g/gabe_bondoc/stronger_than_tab_ver_2.html ]
|------|
|-2/12-|
|-1/11-|
|------|
|-1/11-|
|------|
                   
|---------------------------x-------x--------|
|---------------------7-7-7-x-6-6-6-x-4-4-4--|
|-------------6h8-----6-6-6-x-5-5-5-x-4-4-4--|
|-------4-6/8---------------x-------x--------|
|--4-6----------------6-6-6-x-5-5-5-x-4-4-4--|
|---------------------------x-------x--------|

                           ^                      ^                      ^
|--------------------------x----------------------x----------------------x-|:
|---------------------7--7-x--7-7---7---7-----4-4-x--4-4---4---4-----2-2-x-|:
|-------------6h8-----6--6-x--6-6---6---6-----4-4-x--4-4---4---4-----1-1-x-|:
|-------4-6/8--------------x----------------------x----------------------x-|:
|--4-6----------------6----x-6-----6---6-6----4---x-4-----4---4-4----1---x-|:
|--------------------------x----------------------x----------------------x-|:

Is it my fault I can't speak? That my body becomes weak...
Or that I can hardly move? At the very thought you...




And the rest is figure outable... the chorus gets a lil tricky but all the finger
progressions are basically the same and repeated from the intro. Enjoy!