Ga Gas - Replica Chords & Tabs

 

Replica Chords & Tabs

Ga Gas Chords & Tabs

Version: 1 Type: Tab 0 ratings
1 star 2 stars 3 stars 4 stars 5 stars
comments

Replica Tab

I originally tabbed it in E tuning, but I think I found an easier and better way of
playing it in Drop D. Here it is.

Intro
|---------------------------|---------------------------|
|---------------------------|---------------------------|
|---------------------------|---------------------------|
|-2h4-----------4-----------|-----0h2-----------2-------|
|-----2h4---2h4---2h4-------|---------0h2---0h2---0h2---|
|---------4-----------4-----|-------------2-----------2-|
Listen to the song for the amount of times you play these riffs

Verse
|---------------------------|---------------------------|
|---------------------------|---------------------------|
|---------------------------|---------------------------|
|-2-2-2-4-4-4-2-2-2-2-4-4-4-|-0-0-0-2-2-2-0-0-0-0-2-2-2-|
|-2-2-2-4-4-4-2-2-2-2-4-4-4-|-0-0-0-2-2-2-0-0-0-0-2-2-2-|
|-2-2-2-4-4-4-2-2-2-2-4-4-4-|-0-0-0-2-2-2-0-0-0-0-2-2-2-|
      Play 4x then....             Play 4x
[ Tab from: http://www.guitartabs.cc/tabs/g/ga_gas/replica_tab.html ]
Bridge
|---------------------------------------------------------------|
|---------------------------------------------------------------|
|---------------------------------------------------------------|
|-2h4-----------4------------2h4-----------0-2--2-3-------------|
|-----2h4---2h4---2h4------------2h4---2h4-0-2--2-3-------------|
|---------4-----------4-4-4----------4-----0-2--2-3-------------|
                                      Straight into chorus here

Chorus
|--------------------------------------|
|--------------------------------------|
|--------------------------------------|
|-4----7---------0------0-2-----2/3----|
|-4----7---------0------0-2-----2/3----|
|-4----7---------0------0-2-----2/3----|
 Confi-dence is high, But it's alright

The chorus pretty much repeats itself until back into the main riff.

That's the basic chorus for now. I'll work out the proper version as soon as possible.

Apologies if it's a bad tab, it's as good as I could figure out. And it's better than 
:)
Comments