G Spot - Man Chords & Tabs

 

Man Chords & Tabs

G Spot Chords & Tabs

Version: 1 Type: Bass Tab 0 ratings
1 star 2 stars 3 stars 4 stars 5 stars
comments

Man Bass Tab

   
THE MAN
Words by Bob Feeser/ Music by Kyle Barnhill


INTRO:


 e]-----------------------------------------------------------------------------------------------------------------------------------------------|
B]------------------------------------------------------------------------------------------                                                  G]--|
D]----------------------------------5/7/4---2--0-1-0----------------------------------------------------------------------------------------------|
A]-7^--3-5------7--7-5---7---7--------------------------7/9--9---5/7--5---------------------------------------------------------------------------|
E]-4/5--3-5-------5----------5----------------------------5/7--7---3/5--5-------------------------------------------------------------------------|

MAIN:

 e]----------------------------------------------------------------------------------------------------------------------------|
B]-----------------------------------------------------------------------                                                  G]--|
D]-----------------------------------------------------------------------------------------------------------------------------|
A]-9--99--777--7---7777--7----9--99--777---7-77--------------------------------------------------------------------------------|
E]-7--77--555--0---0000--5----7--77--555---0-55--------------------------------------------------------------------------------|


INTRO:
To only the first Chorus
 e]-----------------------------------------------------------------------------------------------------------------------------------------------|
B]------------------------------------------------------------------------------------------                                                  G]--|
D]------------------------------------------------------------------------------------------------------------------------------------------------|
A]-9x9x9---9x9x9----7x7x7---7x7x7-----------------------------------------------------------------------------------------------------------------|
E]-7x7x7---7x7x7----5x5x5---5x5x5-----------------------------------------------------------------------------------------------------------------|

CHORUS:

 e]-----------------------------------------------------------------------------------------------------------------------------------------------|
B]------------------------------------------------------------------------------------------                                                  G]--|
D]---p.m.-----p.m.--------p.m.---------p.m.-------------------------------------------------------------------------------------------------------|
A]-?7-7?-9----?7-7?-9---- -?5-5?-7----?5-5?--7----------------------------------------------------------------------------------------------------|
E]---7-7--7-----7-7---7-------5-5--5-----5-5----5-------------------------------------------------------------------------------------------------|

MAIN:

 e]----------------------------------------------------------------------------------------------------------------------------|
B]-----------------------------------------------------------------------                                                  G]--|
D]-----------------------------------------------------------------------------------------------------------------------------|
A]-9--99--777--7---7777--7----9--99--777---7-77--------------------------------------------------------------------------------|
E]-7--77--555--0---0000--5----7--77--555---0-55--------------------------------------------------------------------------------|


CHORUS:

 e]-----------------------------------------------------------------------------------------------------------------------------------------------|
B]------------------------------------------------------------------------------------------                                                  G]--|
D]---p.m.-----p.m.--------p.m.---------p.m.-------------------------------------------------------------------------------------------------------|
A]-?7-7?-9----?7-7?-9---- -?5-5?-7---?5-5?--7-----------------------------------------------------------------------------------------------------|
E]---7-7--7-----7-7---7-------5-5--5-----5-5----5-------------------------------------------------------------------------------------------------|

SOLO:
[ Tab from: http://www.guitartabs.cc/tabs/g/g_spot/man_btab.html ]
e]------------------------------------------------------------------------------------------------------------------------------------------------|
B]------------------------------------------------------------------------------------------                                                  G]--|
D]--------7-10-9----5-7-7--7-9-9----2/9--2/7---2-3-2----------------------------------------------------------------------------------------------|
A]-7--9-----------------------------------------------------0----2--------------------------------------------------------------------------------|
E]-------------------------------------------------------------3--0-------------------------------------------------------------------------------|

 e]-----------------------------------------------------------------------------------------------------------------------------------------------------------------------------------|
B]------------------------------------------------------------------------------------------                                                  G]---5----7---9--9-------5---7----9--9--|
D]-2-5-5-7-7-9--9----2-5-5-7-7-9--9---------------------------------------------------------------------------------------------------------------------------------------------------|
A]-2-3-5-5-7-7--7----2-3-5-5-7-7--7---------------------------------------------------------------------------------------------------------------------------------------------------|
E]-0----3---5----------0----3---5-----------------------------------------------------------------------------------------------------------------------------------------------------|


e]------------------------------------------------------------------------------------------------------------------------------------|
B]------------------------------------------------------------------------------                                                  G]--|
D]-0-2-3-0---0-2-3-0--0-2-3-0--0-2-3-0--0-2-3-0---0-2-3-0-----------------------------------------------------------------------------|
A]-----------0----------1---------3---------5----------3-----------5------------------------------------------------------------------|
E]------------------------------------------------------------------------------------------------------------------------------------|

e]---------------------------1--3------------------------------------------------------------------------------------------------------------------------|
B]------------------------3--------1-4-3-1---------------                                                  G]-----------0-2-3-0-2---------------------3--|
D]-0-2-3-0------------------------------------3--5-------------------------------------------------------------------------------------------------------|
A]----------------------------------------------------5--------------------------------------------------------------------------------------------------|
E]-------------------------------------------------------------------------------------------------------------------------------------------------------|

CHORUS#2: Played before outro
with p.m. and heavy shuffle

e]------------------------------------------------------------------------------------------------------------------------------------------------|
B]------------------------------------------------------------------------------------------                                                  G]--|
D]------------------------------------------------------------------------------------------------------------------------------------------------|
A]-7---9-9-9-9---5---7-7-7-7----7---9-9-9-9---5---7-7-7-7-----------------------------------------------------------------------------------------|
E]-7---7-7-7-7---5---5-5-5-5----7---7-7-7-7---5---5-5-5-5-----------------------------------------------------------------------------------------|

OUTRO:
e]---------------------------------------------------------------------------------------------------------------------------------------------------------------------|
B]------------------------------------------------------------------------------------------                                                  G]--------------------1--|
D]---------------------2-----------------------------------------------------------------------------------------------------------------------------------------------|
A]-7--7--5---5--5---2--------------------------------------------------------------------------------------------------------------------------------------------------|
E]-5--4--3---3--2---0--------------------------------------------------------------------------------------------------------------------------------------------------|
TITLE: THE MAN
ALBUM: G+1=?
Comments