G Major Scale Triads - Misc Chords & Tabs

 

Misc Chords & Tabs

G Major Scale Triads Chords & Tabs

Version: 1 Type: Tab 2 ratings
1 star 2 stars 3 stars 4 stars 5 stars
comments

Misc Tab

   
###############################
# practice these and have fun #     The number below the tab repersents   > roll up on the next
###############################       what finger to use

                          G major scales 
                            in triads

       G          Am            Bm            C             D
e------------]-------------]-------------]-------------]-------------]
b------------]-------------]-------------]-------------]-------------]
g------------]-------------]-------------]-------------]--------2----]
d------------]--------2----]--------4----]-----2--5--2-]-----4-----4-]
a----2--5--2-]-----3-----3-]--2--5-----5-]--3----------]--5----------]
E--3---------]--5----------]-------------]-------------]-------------]
   2 1  4  1    4  3  1  3    1  4  3  4    2  1  4  1    4  3  1  3


    Em           F#dim.         G
e------------]-------------]--------------]
b------------]-------------]--------3-----]
g-------4----]-----2--5--2-]-----4-----4--]
d-2--5-----5-]--4----------]--5-----------]
a------------]-------------]--------------]
E------------]-------------]--------------]
  1  4  3  4    3  1  4  1    4  3  2  3


       G           F#dim.          Em            D
e---3-----------]--2----------]-------------]-------------]
b------3--------]-------------]--5----------]--3----------]
g---------4-----]-----5--2----]-----4-------]-----2-------]
d------------5--]-----------4-]--------5--2-]--------4----]
a---------------]-------------]-------------]-----------5-]
E---------------]-------------]-------------]-------------]
    2> 2  3  4     3  1  4  1    4  3  4  1    2  1  3  4

      C            Bm            Am            G
e-------------]-------------]-------------]-------------]
b-------------]-------------]-------------]-------------]
g--5----------]--4----------]--2----------]-------------]
d-----5--2----]-----4-------]-----2-------]--5----------]
a-----------3-]--------5--2-]--------3----]-----5--2----]
E-------------]-------------]-----------5-]-----------3-]
   4> 4  1  2    3> 3  4  1    1> 1  3  4    4> 4  1  2

[ Tab from: http://www.guitartabs.cc/tabs/g/g_major_scale_triads/misc_tab.html ]
     G                    Am               Bm             C                   D
e------------------]----------------]--------------]-----------------]---------------]
b------------------]----------------]--------------]-----------------]-------3-------]
g-----------5------]---------2------]--------4-----]-------5---------]-----2---2-----]
d--------5----5----]-------2---2----]------4---4---]---2-5---5--2----]---4-------4---]
a-----2----------2-]-----3--------3-]--2-5-------5-]-3-------------3-]-5-----------5-]
E--3---------------]--5-------------]--------------]-----------------]---------------]
   2  1  4> 4>4  1    4  2  1>1>1 2    1 4 3>3>3 4   2 1 4>4>4  1  2   4 3 1 2 1 3 4


      Em                  F#dim7                  G
e------------------]-----------2-------]-----------3-------]
b-----------5------]-------------------]--------3-----3----]
g--------4-----4---]-----2--5-----5--2-]-----4-----------4-]
d--2--5-----------5]--4----------------]--5----------------]
a------------------]-------------------]-------------------]
E------------------]-------------------]-------------------]
   1  4  3  4  3  4   3  1   4 1  4  1    4  3  2> 2> 2  3





                                      /\
                                     /  \
                                    /Jay \
                                   / 1st  \
                                   \      /
                                    \    /
                                     \  /      
                                      \/
                                 

  #########################################################################################
  #                                                                                       #
  #                     If you like to see more like this                                 #
  #                     Just E/mail me I will work on more                                #
  #                         GOOD LUCK TO YOU ALL                                          #
  #                                                                                       #
  #########################################################################################

Comments