G Love And Special Sauce - Gimme Some Lovin Chords & Tabs

 

G Love And Special Sauce Chords & Tabs

Version: 2 Type: Tab 0 ratings
1 star 2 stars 3 stars 4 stars 5 stars
comments

Gimme Some Lovin Tab

Gimme Some Lovin - Intro
I took the .mp3 file, converted it to .wav, and slowed it
down so I could hear each note.  I am almost positive this
is right, but I have never tabbed a piece before and I do
not own a guitar so feel free to make changes.

I have indicated the beats of each measure under the
line.  Notes that come between these beats are almost
always just eighth notes, except for the E and C
in the first measure, which sound like eighth note
triplets.

E------3-----3---0--|-3-0---3---0-----|----3-----3/5-------
B------------------1|---------------1-|--------------------
G-------------------|-------------0---|--------------------
D-------------------|-----------------|------------0-------
A---3--3---3---3----|-3---3---3-------|-3--3---3-----------
E-------------------|-----------------|--------------------
                                                                
    |  |   |   |      |   |   |   |     |  |   |   | 

[ Tab from: http://www.guitartabs.cc/tabs/g/g_love_and_special_sauce/gimme_some_lovin_tab_ver_2.html ]
E-------------------|-----1-------1-1-|-3-1---3---1--------
B---1----------0----|-----------------|--------------------
G--------0-------0--|-----------------|---------------0----
D------1-------0----|-3-------3-------|-3---3---3----------
A---3------3--------|-----------------|--------------------
E-------------------|-----------------|--------------------
                                                                
    |  |   |   |      |   |   |   |     |   |   |   |



E-------------------|-------0---------|--------------------
B------1------------|---------3-----0-|-1--1---------1-----
G------------0---0--|---0-------0---0-|----------0---------
D-------------------|-------------0---|----2-------2-------
A---3------3---5----|-----------------|-3--3---3-----------
E-------------------|-3---3-----------|--------------------
                                                                
    |  |   |   |      |   |   |   |     |  |   |   |


E-------------------|
B---------1-------1-|
G-----0-------0-----|
D-------2-------2---|
A---3-------3-------|
E-------------------|
                                                                
    |   |   |   |      


Good luck
Comments