G Love And Special Sauce - Front Porch Lounger Chords & Tabs

 

Front Porch Lounger Chords & Tabs

G Love And Special Sauce Chords & Tabs

Version: 1 Type: Tab 0 ratings
1 star 2 stars 3 stars 4 stars 5 stars
comments

Front Porch Lounger Tab

   
-------------------------------------------------------------------------------
          G. Love And The Special Sauce - Front Porch Lounger
-------------------------------------------------------------------------------
Tabbed by: JP Bourgon
AOL/AIM: FRTYoz2FREEDUMB

Tuning:Standard (EADGBE)

Into/Verse (Main Riff)
e|-x-x-x-------------------------------------------------------------|
B|-2-2-2-------------------------------------------------------------|
G|-2-2-2----2-2h4h2--------------------------------------------------|
D|-2-2-2-2h4-4-----4h0-----------------------------------------------|
A|-0-0-0-------------------------------------------------------------|
E|-x-x-x-------------------------------------------------------------|
[ Tab from: http://www.guitartabs.cc/tabs/g/g_love_and_special_sauce/front_porch_lounger_tab.html ]
Chorus ("and i'm going")
e|-0-0-0--3-3-3------------------------------------------------------|
B|-1-1-1--3-3-3------------------------------------------------------|
G|-0-0-0--0-0-0------------------------------------------------------|
D|-2-2-2--0-0-0------------------------------------------------------|
A|-3-3-3--2-2-2------------------------------------------------------|
E|-x-x-x--3-3-3------------------------------------------------------|
 
Note: The chorus may not be correct, but its sounds fairly good when
play'd along with the song... Instant Message me for any questions.

| /  slide up
| \  slide down
| h  hammer-on
| p  pull-off
| ~  vibrato
| +  harmonic
| x  Mute note
===============================================================================
Comments